ISO-10303-21;
HEADER;
FILE_DESCRIPTION (( 'STEP AP203' ),
    '1' );
FILE_NAME ('Rudus 6780100 Korotusrengas kaukolämpö 800x100.step',
    '2020-03-16T06:42:47',
    ( '' ),
    ( '' ),
    'SwSTEP 2.0',
    'SolidWorks 2019',
    '' );
FILE_SCHEMA (( 'CONFIG_CONTROL_DESIGN' ));
ENDSEC;

DATA;
#1 = CALENDAR_DATE ( 2020, 16, 3 ) ;
#2 = CARTESIAN_POINT ( 'NONE',  ( 0.0000000000000000000, 100.0000000000000000, 0.0000000000000000000 ) ) ;
#3 = CC_DESIGN_PERSON_AND_ORGANIZATION_ASSIGNMENT ( #36, #162, ( #218 ) ) ;
#4 = APPLICATION_CONTEXT ( 'configuration controlled 3d designs of mechanical parts and assemblies' ) ;
#5 = DIRECTION ( 'NONE',  ( 0.0000000000000000000, 0.0000000000000000000, 1.000000000000000000 ) ) ;
#6 = PERSON_AND_ORGANIZATION_ROLE ( 'classification_officer' ) ;
#7 = CARTESIAN_POINT ( 'NONE',  ( 0.0000000000000000000, 100.0000000000000000, -472.5000000000000568 ) ) ;
#8 = CYLINDRICAL_SURFACE ( 'NONE', #310, 400.0000000000000000 ) ;
#9 = AXIS2_PLACEMENT_3D ( 'NONE', #281, #298, #340 ) ;
#10 = ORIENTED_EDGE ( 'NONE', *, *, #316, .F. ) ;
#11 = DIRECTION ( 'NONE',  ( 0.0000000000000000000, 1.000000000000000000, 0.0000000000000000000 ) ) ;
#12 = APPROVAL_STATUS ( 'not_yet_approved' ) ;
#13 = CALENDAR_DATE ( 2020, 16, 3 ) ;
#14 = CC_DESIGN_SECURITY_CLASSIFICATION ( #203, ( #373 ) ) ;
#15 = LOCAL_TIME ( 8, 42, 47.00000000000000000, #326 ) ;
#16 = ORIENTED_EDGE ( 'NONE', *, *, #33, .T. ) ;
#17 = PERSON_AND_ORGANIZATION_ROLE ( 'creator' ) ;
#18 = DIRECTION ( 'NONE',  ( -0.0000000000000000000, -1.000000000000000000, -0.0000000000000000000 ) ) ;
#19 = DESIGN_CONTEXT ( 'detailed design', #323, 'design' ) ;
#20 = SHAPE_DEFINITION_REPRESENTATION ( #240, #297 ) ;
#21 = PRODUCT ( 'kaivo-osa-korotusrengas_Kaukol„mp”', 'kaivo-osa-korotusrengas_Kaukol„mp”', '', ( #89 ) ) ;
#22 =( LENGTH_UNIT ( ) NAMED_UNIT ( * ) SI_UNIT ( .MILLI., .METRE. ) );
#23 = DATE_AND_TIME ( #318, #97 ) ;
#24 = APPROVAL_PERSON_ORGANIZATION ( #314, #188, #120 ) ;
#25 = APPROVAL_PERSON_ORGANIZATION ( #77, #175, #50 ) ;
#26 = LOCAL_TIME ( 8, 42, 47.00000000000000000, #199 ) ;
#27 = APPROVAL_DATE_TIME ( #146, #188 ) ;
#28 = CIRCLE ( 'NONE', #58, 472.5000000000000568 ) ;
#29 = DIRECTION ( 'NONE',  ( 0.0000000000000000000, 1.000000000000000000, 0.0000000000000000000 ) ) ;
#30 = CALENDAR_DATE ( 2020, 16, 3 ) ;
#31 = APPROVAL_PERSON_ORGANIZATION ( #261, #245, #244 ) ;
#32 = APPROVAL_PERSON_ORGANIZATION ( #108, #197, #330 ) ;
#33 = EDGE_CURVE ( 'NONE', #361, #103, #71, .T. ) ;
#34 = VECTOR ( 'NONE', #112, 1000.000000000000000 ) ;
#35 = DIRECTION ( 'NONE',  ( 0.0000000000000000000, 1.000000000000000000, 0.0000000000000000000 ) ) ;
#36 = PERSON_AND_ORGANIZATION ( #353, #272 ) ;
#37 = APPROVAL_ROLE ( '' ) ;
#38 = DIRECTION ( 'NONE',  ( 0.0000000000000000000, 0.0000000000000000000, 1.000000000000000000 ) ) ;
#39 = ORIENTED_EDGE ( 'NONE', *, *, #300, .F. ) ;
#40 = LOCAL_TIME ( 8, 42, 47.00000000000000000, #186 ) ;
#41 = CYLINDRICAL_SURFACE ( 'NONE', #9, 400.0000000000000000 ) ;
#42 = CC_DESIGN_PERSON_AND_ORGANIZATION_ASSIGNMENT ( #87, #210, ( #74 ) ) ;
#43 = COORDINATED_UNIVERSAL_TIME_OFFSET ( 2, 0, .AHEAD. ) ;
#44 = AXIS2_PLACEMENT_3D ( 'NONE', #181, #52, #286 ) ;
#45 = ADVANCED_BREP_SHAPE_REPRESENTATION ( '', ( #95, #230 ), #241 ) ;
#46 = DIRECTION ( 'NONE',  ( -0.0000000000000000000, -1.000000000000000000, -0.0000000000000000000 ) ) ;
#47 = DATE_AND_TIME ( #57, #15 ) ;
#48 = DIRECTION ( 'NONE',  ( -0.0000000000000000000, -1.000000000000000000, -0.0000000000000000000 ) ) ;
#49 = EDGE_CURVE ( 'NONE', #76, #164, #236, .T. ) ;
#50 = APPROVAL_ROLE ( '' ) ;
#51 = CIRCLE ( 'NONE', #44, 400.0000000000000000 ) ;
#52 = DIRECTION ( 'NONE',  ( 0.0000000000000000000, 1.000000000000000000, 0.0000000000000000000 ) ) ;
#53 = COORDINATED_UNIVERSAL_TIME_OFFSET ( 2, 0, .AHEAD. ) ;
#54 = PRODUCT_DEFINITION_SHAPE ( 'NONE', 'NONE',  #207 ) ;
#55 = DATE_TIME_ROLE ( 'creation_date' ) ;
#56 = CC_DESIGN_PERSON_AND_ORGANIZATION_ASSIGNMENT ( #153, #17, ( #207 ) ) ;
#57 = CALENDAR_DATE ( 2020, 16, 3 ) ;
#58 = AXIS2_PLACEMENT_3D ( 'NONE', #271, #35, #190 ) ;
#59 = CARTESIAN_POINT ( 'NONE',  ( 0.0000000000000000000, 0.0000000000000000000, 0.0000000000000000000 ) ) ;
#60 =( NAMED_UNIT ( * ) PLANE_ANGLE_UNIT ( ) SI_UNIT ( $, .RADIAN. ) );
#61 = CARTESIAN_POINT ( 'NONE',  ( 0.0000000000000000000, 0.0000000000000000000, 0.0000000000000000000 ) ) ;
#62 = CARTESIAN_POINT ( 'NONE',  ( 0.0000000000000000000, 0.0000000000000000000, 0.0000000000000000000 ) ) ;
#63 = APPROVAL_DATE_TIME ( #303, #150 ) ;
#64 = DIRECTION ( 'NONE',  ( 0.0000000000000000000, 0.0000000000000000000, 1.000000000000000000 ) ) ;
#65 = APPROVAL_STATUS ( 'not_yet_approved' ) ;
#66 = AXIS2_PLACEMENT_3D ( 'NONE', #141, #11, #72 ) ;
#67 = CC_DESIGN_APPROVAL ( #135, ( #203 ) ) ;
#68 = VERTEX_POINT ( 'NONE', #110 ) ;
#69 = DIRECTION ( 'NONE',  ( 0.0000000000000000000, 0.0000000000000000000, 1.000000000000000000 ) ) ;
#70 = ADVANCED_FACE ( 'NONE', ( #317 ), #177, .T. ) ;
#71 = CIRCLE ( 'NONE', #231, 400.0000000000000000 ) ;
#72 = DIRECTION ( 'NONE',  ( 0.0000000000000000000, 0.0000000000000000000, 1.000000000000000000 ) ) ;
#73 = PERSON_AND_ORGANIZATION ( #353, #272 ) ;
#74 = PRODUCT_DEFINITION_FORMATION_WITH_SPECIFIED_SOURCE ( 'ANY', '', #83, .NOT_KNOWN. ) ;
#75 = LOCAL_TIME ( 8, 42, 47.00000000000000000, #53 ) ;
#76 = VERTEX_POINT ( 'NONE', #304 ) ;
#77 = PERSON_AND_ORGANIZATION ( #353, #272 ) ;
#78 = CARTESIAN_POINT ( 'NONE',  ( 4.898587196589412868E-14, 100.0000000000000000, 400.0000000000000000 ) ) ;
#79 = DESIGN_CONTEXT ( 'detailed design', #4, 'design' ) ;
#80 = EDGE_LOOP ( 'NONE', ( #169, #275, #233, #10 ) ) ;
#81 = PERSON_AND_ORGANIZATION_ROLE ( 'classification_officer' ) ;
#82 = DIRECTION ( 'NONE',  ( 0.0000000000000000000, 0.0000000000000000000, 1.000000000000000000 ) ) ;
#83 = PRODUCT ( 'Rudus 6780100 Korotusrengas kaukolämpö 800x100', 'Rudus 6780100 Korotusrengas kaukolämpö 800x100', '', ( #187 ) ) ;
#84 = DIRECTION ( 'NONE',  ( -1.000000000000000000, -5.551115123125782702E-17, 2.775557561562891351E-16 ) ) ;
#85 = PERSON_AND_ORGANIZATION ( #353, #272 ) ;
#86 = AXIS2_PLACEMENT_3D ( 'NONE', #348, #29, #93 ) ;
#87 = PERSON_AND_ORGANIZATION ( #353, #272 ) ;
#88 = DIRECTION ( 'NONE',  ( 0.0000000000000000000, 0.0000000000000000000, -1.000000000000000000 ) ) ;
#89 = MECHANICAL_CONTEXT ( 'NONE', #173, 'mechanical' ) ;
#90 = CC_DESIGN_APPROVAL ( #188, ( #166 ) ) ;
#91 = CC_DESIGN_APPROVAL ( #170, ( #138 ) ) ;
#92 = CC_DESIGN_APPROVAL ( #197, ( #74 ) ) ;
#93 = DIRECTION ( 'NONE',  ( 0.0000000000000000000, -0.0000000000000000000, 1.000000000000000000 ) ) ;
#94 = DIRECTION ( 'NONE',  ( 0.0000000000000000000, 0.0000000000000000000, -1.000000000000000000 ) ) ;
#95 = MANIFOLD_SOLID_BREP ( 'Boss-Extrude-rengas', #258 ) ;
#96 = APPROVAL_PERSON_ORGANIZATION ( #73, #150, #206 ) ;
#97 = LOCAL_TIME ( 8, 42, 47.00000000000000000, #336 ) ;
#98 = CARTESIAN_POINT ( 'NONE',  ( 4.898587196589412868E-14, 100.0000000000000000, 400.0000000000000000 ) ) ;
#99 = APPROVAL_DATE_TIME ( #191, #135 ) ;
#100 = CIRCLE ( 'NONE', #217, 472.5000000000000568 ) ;
#101 = APPROVAL_DATE_TIME ( #349, #170 ) ;
#102 = ORIENTED_EDGE ( 'NONE', *, *, #316, .T. ) ;
#103 = VERTEX_POINT ( 'NONE', #98 ) ;
#104 = ORIENTED_EDGE ( 'NONE', *, *, #255, .T. ) ;
#105 = CC_DESIGN_PERSON_AND_ORGANIZATION_ASSIGNMENT ( #296, #371, ( #83 ) ) ;
#106 = DIRECTION ( 'NONE',  ( 0.0000000000000000000, 1.000000000000000000, 0.0000000000000000000 ) ) ;
#107 = CC_DESIGN_PERSON_AND_ORGANIZATION_ASSIGNMENT ( #221, #6, ( #203 ) ) ;
#108 = PERSON_AND_ORGANIZATION ( #353, #272 ) ;
#109 =( NAMED_UNIT ( * ) SI_UNIT ( $, .STERADIAN. ) SOLID_ANGLE_UNIT ( ) );
#110 = CARTESIAN_POINT ( 'NONE',  ( 0.0000000000000000000, 0.0000000000000000000, -400.0000000000000000 ) ) ;
#111 = APPLICATION_PROTOCOL_DEFINITION ( 'international standard', 'config_control_design', 1994, #173 ) ;
#112 = DIRECTION ( 'NONE',  ( -0.0000000000000000000, -1.000000000000000000, -0.0000000000000000000 ) ) ;
#113 = ORIENTED_EDGE ( 'NONE', *, *, #300, .T. ) ;
#114 = DATE_AND_TIME ( #234, #254 ) ;
#115 = COORDINATED_UNIVERSAL_TIME_OFFSET ( 2, 0, .AHEAD. ) ;
#116 = ADVANCED_FACE ( 'NONE', ( #194, #158 ), #220, .F. ) ;
#117 = PERSON_AND_ORGANIZATION ( #353, #272 ) ;
#118 = AXIS2_PLACEMENT_3D ( 'NONE', #238, #341, #84 ) ;
#119 = PERSON ( 'NAUO-PER1', 'UNSPECIFIED', 'UNSPECIFIED', ('UNSPECIFIED'), ('UNSPECIFIED'), ('UNSPECIFIED') ) ;
#120 = APPROVAL_ROLE ( '' ) ;
#121 = CONTEXT_DEPENDENT_SHAPE_REPRESENTATION ( #168, #343 ) ;
#122 = DIRECTION ( 'NONE',  ( 0.0000000000000000000, 1.000000000000000000, 0.0000000000000000000 ) ) ;
#123 = CC_DESIGN_PERSON_AND_ORGANIZATION_ASSIGNMENT ( #149, #81, ( #138 ) ) ;
#124 = CARTESIAN_POINT ( 'NONE',  ( 0.0000000000000000000, 100.0000000000000000, 0.0000000000000000000 ) ) ;
#125 = COORDINATED_UNIVERSAL_TIME_OFFSET ( 2, 0, .AHEAD. ) ;
#126 = DIRECTION ( 'NONE',  ( -0.0000000000000000000, -1.000000000000000000, -0.0000000000000000000 ) ) ;
#127 = COORDINATED_UNIVERSAL_TIME_OFFSET ( 2, 0, .AHEAD. ) ;
#128 = SHAPE_REPRESENTATION ( 'kaivo-osa-korotusrengas_Kaukol„mp”', ( #230 ), #241 ) ;
#129 = LOCAL_TIME ( 8, 42, 47.00000000000000000, #115 ) ;
#130 = CARTESIAN_POINT ( 'NONE',  ( 4.898587196589412868E-14, 0.0000000000000000000, 400.0000000000000000 ) ) ;
#131 = DATE_TIME_ROLE ( 'classification_date' ) ;
#132 = FACE_OUTER_BOUND ( 'NONE', #133, .T. ) ;
#133 = EDGE_LOOP ( 'NONE', ( #355, #280, #102, #104 ) ) ;
#134 = EDGE_LOOP ( 'NONE', ( #204, #113 ) ) ;
#135 = APPROVAL ( #65, 'UNKNOWN' ) ;
#136 = SECURITY_CLASSIFICATION ( '', '', #270 ) ;
#137 = APPLICATION_CONTEXT ( 'configuration controlled 3d designs of mechanical parts and assemblies' ) ;
#138 = SECURITY_CLASSIFICATION ( '', '', #368 ) ;
#139 = ADVANCED_FACE ( 'NONE', ( #160, #274 ), #247, .T. ) ;
#140 = CIRCLE ( 'NONE', #209, 400.0000000000000000 ) ;
#141 = CARTESIAN_POINT ( 'NONE',  ( 0.0000000000000000000, 0.0000000000000000000, 0.0000000000000000000 ) ) ;
#142 = CC_DESIGN_SECURITY_CLASSIFICATION ( #138, ( #166 ) ) ;
#143 = VERTEX_POINT ( 'NONE', #130 ) ;
#144 = COORDINATED_UNIVERSAL_TIME_OFFSET ( 2, 0, .AHEAD. ) ;
#145 = ORIENTED_EDGE ( 'NONE', *, *, #329, .T. ) ;
#146 = DATE_AND_TIME ( #287, #40 ) ;
#147 = LINE ( 'NONE', #78, #257 ) ;
#148 = DIRECTION ( 'NONE',  ( 0.0000000000000000000, 0.0000000000000000000, 1.000000000000000000 ) ) ;
#149 = PERSON_AND_ORGANIZATION ( #353, #272 ) ;
#150 = APPROVAL ( #229, 'UNSPECIFIED' ) ;
#151 = PERSON_AND_ORGANIZATION ( #353, #272 ) ;
#152 = LOCAL_TIME ( 8, 42, 47.00000000000000000, #267 ) ;
#153 = PERSON_AND_ORGANIZATION ( #353, #272 ) ;
#154 = AXIS2_PLACEMENT_3D ( 'NONE', #2, #249, #301 ) ;
#155 =( LENGTH_UNIT ( ) NAMED_UNIT ( * ) SI_UNIT ( .MILLI., .METRE. ) );
#156 = CARTESIAN_POINT ( 'NONE',  ( 5.786456125971244586E-14, 0.0000000000000000000, 472.5000000000000568 ) ) ;
#157 = ITEM_DEFINED_TRANSFORMATION ( 'NONE', 'NONE', #118,  #230 ) ;
#158 = FACE_BOUND ( 'NONE', #134, .T. ) ;
#159 = CARTESIAN_POINT ( 'NONE',  ( 0.0000000000000000000, 0.0000000000000000000, 0.0000000000000000000 ) ) ;
#160 = FACE_OUTER_BOUND ( 'NONE', #278, .T. ) ;
#161 = SECURITY_CLASSIFICATION_LEVEL ( 'unclassified' ) ;
#162 = PERSON_AND_ORGANIZATION_ROLE ( 'creator' ) ;
#163 = PRODUCT_RELATED_PRODUCT_CATEGORY ( 'detail', '', ( #83 ) ) ;
#164 = VERTEX_POINT ( 'NONE', #156 ) ;
#165 = FACE_OUTER_BOUND ( 'NONE', #359, .T. ) ;
#166 = PRODUCT_DEFINITION_FORMATION_WITH_SPECIFIED_SOURCE ( 'ANY', '', #21, .NOT_KNOWN. ) ;
#167 = ORIENTED_EDGE ( 'NONE', *, *, #242, .T. ) ;
#168 =( REPRESENTATION_RELATIONSHIP ('NONE','NONE', #297, #128 ) REPRESENTATION_RELATIONSHIP_WITH_TRANSFORMATION ( #157 )SHAPE_REPRESENTATION_RELATIONSHIP( ) );
#169 = ORIENTED_EDGE ( 'NONE', *, *, #172, .F. ) ;
#170 = APPROVAL ( #246, 'UNSPECIFIED' ) ;
#171 = ORIENTED_EDGE ( 'NONE', *, *, #172, .T. ) ;
#172 = EDGE_CURVE ( 'NONE', #76, #331, #28, .T. ) ;
#173 = APPLICATION_CONTEXT ( 'configuration controlled 3d designs of mechanical parts and assemblies' ) ;
#174 = VECTOR ( 'NONE', #48, 1000.000000000000000 ) ;
#175 = APPROVAL ( #182, 'UNSPECIFIED' ) ;
#176 = CARTESIAN_POINT ( 'NONE',  ( 0.0000000000000000000, 100.0000000000000000, 0.0000000000000000000 ) ) ;
#177 = CYLINDRICAL_SURFACE ( 'NONE', #319, 472.5000000000000568 ) ;
#178 = CARTESIAN_POINT ( 'NONE',  ( 0.0000000000000000000, 100.0000000000000000, -472.5000000000000568 ) ) ;
#179 = ORIENTED_EDGE ( 'NONE', *, *, #327, .F. ) ;
#180 = APPLICATION_PROTOCOL_DEFINITION ( 'international standard', 'config_control_design', 1994, #323 ) ;
#181 = CARTESIAN_POINT ( 'NONE',  ( 0.0000000000000000000, 0.0000000000000000000, 0.0000000000000000000 ) ) ;
#182 = APPROVAL_STATUS ( 'not_yet_approved' ) ;
#183 = CC_DESIGN_DATE_AND_TIME_ASSIGNMENT ( #352, #131, ( #203 ) ) ;
#184 = LINE ( 'NONE', #178, #34 ) ;
#185 = CALENDAR_DATE ( 2020, 16, 3 ) ;
#186 = COORDINATED_UNIVERSAL_TIME_OFFSET ( 2, 0, .AHEAD. ) ;
#187 = MECHANICAL_CONTEXT ( 'NONE', #137, 'mechanical' ) ;
#188 = APPROVAL ( #216, 'UNSPECIFIED' ) ;
#189 = DATE_AND_TIME ( #214, #285 ) ;
#190 = DIRECTION ( 'NONE',  ( 0.0000000000000000000, 0.0000000000000000000, 1.000000000000000000 ) ) ;
#191 = DATE_AND_TIME ( #1, #315 ) ;
#192 = CYLINDRICAL_SURFACE ( 'NONE', #302, 472.5000000000000568 ) ;
#193 = DIRECTION ( 'NONE',  ( 0.0000000000000000000, 1.000000000000000000, 0.0000000000000000000 ) ) ;
#194 = FACE_OUTER_BOUND ( 'NONE', #253, .T. ) ;
#195 = DIRECTION ( 'NONE',  ( 1.000000000000000000, 0.0000000000000000000, 0.0000000000000000000 ) ) ;
#196 = APPROVAL_PERSON_ORGANIZATION ( #151, #170, #347 ) ;
#197 = APPROVAL ( #12, 'UNSPECIFIED' ) ;
#198 = CC_DESIGN_DATE_AND_TIME_ASSIGNMENT ( #189, #55, ( #207 ) ) ;
#199 = COORDINATED_UNIVERSAL_TIME_OFFSET ( 2, 0, .AHEAD. ) ;
#200 = ORIENTED_EDGE ( 'NONE', *, *, #33, .F. ) ;
#201 = LOCAL_TIME ( 8, 42, 47.00000000000000000, #127 ) ;
#202 = LOCAL_TIME ( 8, 42, 47.00000000000000000, #43 ) ;
#203 = SECURITY_CLASSIFICATION ( '', '', #161 ) ;
#204 = ORIENTED_EDGE ( 'NONE', *, *, #226, .T. ) ;
#205 = DIRECTION ( 'NONE',  ( 0.0000000000000000000, 0.0000000000000000000, 1.000000000000000000 ) ) ;
#206 = APPROVAL_ROLE ( '' ) ;
#207 = PRODUCT_DEFINITION ( 'UNKNOWN', '', #166, #19 ) ;
#208 = AXIS2_PLACEMENT_3D ( 'NONE', #366, #288, #82 ) ;
#209 = AXIS2_PLACEMENT_3D ( 'NONE', #176, #106, #205 ) ;
#210 = PERSON_AND_ORGANIZATION_ROLE ( 'creator' ) ;
#211 = PRODUCT_RELATED_PRODUCT_CATEGORY ( 'detail', '', ( #21 ) ) ;
#212 = DIRECTION ( 'NONE',  ( 0.0000000000000000000, 1.000000000000000000, 0.0000000000000000000 ) ) ;
#213 = APPROVAL_DATE_TIME ( #114, #197 ) ;
#214 = CALENDAR_DATE ( 2020, 16, 3 ) ;
#215 = PERSON_AND_ORGANIZATION ( #353, #272 ) ;
#216 = APPROVAL_STATUS ( 'not_yet_approved' ) ;
#217 = AXIS2_PLACEMENT_3D ( 'NONE', #265, #122, #38 ) ;
#218 = PRODUCT_DEFINITION ( 'UNKNOWN', '', #74, #79 ) ;
#219 = SHAPE_DEFINITION_REPRESENTATION ( #54, #128 ) ;
#220 = PLANE ( 'NONE',  #86 ) ;
#221 = PERSON_AND_ORGANIZATION ( #119, #358 ) ;
#222 =( GEOMETRIC_REPRESENTATION_CONTEXT ( 3 ) GLOBAL_UNCERTAINTY_ASSIGNED_CONTEXT ( ( #367 ) ) GLOBAL_UNIT_ASSIGNED_CONTEXT ( ( #22, #364, #109 ) ) REPRESENTATION_CONTEXT ( 'NONE', 'WORKASPACE' ) );
#223 = ORIENTED_EDGE ( 'NONE', *, *, #327, .T. ) ;
#224 = ADVANCED_FACE ( 'NONE', ( #165 ), #8, .F. ) ;
#225 = VERTEX_POINT ( 'NONE', #356 ) ;
#226 = EDGE_CURVE ( 'NONE', #68, #143, #332, .T. ) ;
#227 = ORIENTED_EDGE ( 'NONE', *, *, #291, .T. ) ;
#228 = CC_DESIGN_DATE_AND_TIME_ASSIGNMENT ( #23, #237, ( #136 ) ) ;
#229 = APPROVAL_STATUS ( 'not_yet_approved' ) ;
#230 = AXIS2_PLACEMENT_3D ( 'NONE', #62, #5, #351 ) ;
#231 = AXIS2_PLACEMENT_3D ( 'NONE', #260, #212, #263 ) ;
#232 = CARTESIAN_POINT ( 'NONE',  ( 0.0000000000000000000, 100.0000000000000000, 0.0000000000000000000 ) ) ;
#233 = ORIENTED_EDGE ( 'NONE', *, *, #312, .T. ) ;
#234 = CALENDAR_DATE ( 2020, 16, 3 ) ;
#235 = CC_DESIGN_DATE_AND_TIME_ASSIGNMENT ( #293, #322, ( #138 ) ) ;
#236 = LINE ( 'NONE', #335, #289 ) ;
#237 = DATE_TIME_ROLE ( 'classification_date' ) ;
#238 = CARTESIAN_POINT ( 'NONE',  ( 0.0000000000000000000, -161.7731247645711790, 0.0000000000000000000 ) ) ;
#239 = PERSON_AND_ORGANIZATION_ROLE ( 'creator' ) ;
#240 = PRODUCT_DEFINITION_SHAPE ( 'NONE', 'NONE',  #218 ) ;
#241 =( GEOMETRIC_REPRESENTATION_CONTEXT ( 3 ) GLOBAL_UNCERTAINTY_ASSIGNED_CONTEXT ( ( #279 ) ) GLOBAL_UNIT_ASSIGNED_CONTEXT ( ( #155, #60, #248 ) ) REPRESENTATION_CONTEXT ( 'NONE', 'WORKASPACE' ) );
#242 = EDGE_CURVE ( 'NONE', #103, #361, #140, .T. ) ;
#243 = DATE_TIME_ROLE ( 'creation_date' ) ;
#244 = APPROVAL_ROLE ( '' ) ;
#245 = APPROVAL ( #369, 'UNSPECIFIED' ) ;
#246 = APPROVAL_STATUS ( 'not_yet_approved' ) ;
#247 = PLANE ( 'NONE',  #154 ) ;
#248 =( NAMED_UNIT ( * ) SI_UNIT ( $, .STERADIAN. ) SOLID_ANGLE_UNIT ( ) );
#249 = DIRECTION ( 'NONE',  ( 0.0000000000000000000, 1.000000000000000000, 0.0000000000000000000 ) ) ;
#250 = DIRECTION ( 'NONE',  ( 0.0000000000000000000, 0.0000000000000000000, -1.000000000000000000 ) ) ;
#251 = CC_DESIGN_SECURITY_CLASSIFICATION ( #136, ( #74 ) ) ;
#252 = CALENDAR_DATE ( 2020, 16, 3 ) ;
#253 = EDGE_LOOP ( 'NONE', ( #313, #357 ) ) ;
#254 = LOCAL_TIME ( 8, 42, 47.00000000000000000, #144 ) ;
#255 = EDGE_CURVE ( 'NONE', #225, #164, #345, .T. ) ;
#256 = ORIENTED_EDGE ( 'NONE', *, *, #226, .F. ) ;
#257 = VECTOR ( 'NONE', #18, 1000.000000000000000 ) ;
#258 = CLOSED_SHELL ( 'NONE', ( #276, #70, #139, #116, #360, #224 ) ) ;
#259 = DIRECTION ( 'NONE',  ( -0.0000000000000000000, -1.000000000000000000, -0.0000000000000000000 ) ) ;
#260 = CARTESIAN_POINT ( 'NONE',  ( 0.0000000000000000000, 100.0000000000000000, 0.0000000000000000000 ) ) ;
#261 = PERSON_AND_ORGANIZATION ( #353, #272 ) ;
#262 = CARTESIAN_POINT ( 'NONE',  ( 0.0000000000000000000, 100.0000000000000000, -400.0000000000000000 ) ) ;
#263 = DIRECTION ( 'NONE',  ( 0.0000000000000000000, 0.0000000000000000000, 1.000000000000000000 ) ) ;
#264 = PERSON_AND_ORGANIZATION ( #353, #272 ) ;
#265 = CARTESIAN_POINT ( 'NONE',  ( 0.0000000000000000000, 100.0000000000000000, 0.0000000000000000000 ) ) ;
#266 = PERSON_AND_ORGANIZATION_ROLE ( 'classification_officer' ) ;
#267 = COORDINATED_UNIVERSAL_TIME_OFFSET ( 2, 0, .AHEAD. ) ;
#268 = CC_DESIGN_PERSON_AND_ORGANIZATION_ASSIGNMENT ( #85, #370, ( #21 ) ) ;
#269 = APPLICATION_PROTOCOL_DEFINITION ( 'international standard', 'config_control_design', 1994, #137 ) ;
#270 = SECURITY_CLASSIFICATION_LEVEL ( 'unclassified' ) ;
#271 = CARTESIAN_POINT ( 'NONE',  ( 0.0000000000000000000, 100.0000000000000000, 0.0000000000000000000 ) ) ;
#272 = ORGANIZATION ( 'UNSPECIFIED', 'UNSPECIFIED', '' ) ;
#273 = APPROVAL_PERSON_ORGANIZATION ( #221, #135, #37 ) ;
#274 = FACE_BOUND ( 'NONE', #333, .T. ) ;
#275 = ORIENTED_EDGE ( 'NONE', *, *, #49, .T. ) ;
#276 = ADVANCED_FACE ( 'NONE', ( #307 ), #41, .F. ) ;
#277 = EDGE_LOOP ( 'NONE', ( #16, #223, #256, #284 ) ) ;
#278 = EDGE_LOOP ( 'NONE', ( #145, #171 ) ) ;
#279 = UNCERTAINTY_MEASURE_WITH_UNIT (LENGTH_MEASURE( 1.000000000000000082E-05 ), #155, 'distance_accuracy_value', 'NONE');
#280 = ORIENTED_EDGE ( 'NONE', *, *, #329, .F. ) ;
#281 = CARTESIAN_POINT ( 'NONE',  ( 0.0000000000000000000, 100.0000000000000000, 0.0000000000000000000 ) ) ;
#282 = AXIS2_PLACEMENT_3D ( 'NONE', #159, #148, #292 ) ;
#283 = CC_DESIGN_PERSON_AND_ORGANIZATION_ASSIGNMENT ( #264, #346, ( #166 ) ) ;
#284 = ORIENTED_EDGE ( 'NONE', *, *, #291, .F. ) ;
#285 = LOCAL_TIME ( 8, 42, 47.00000000000000000, #365 ) ;
#286 = DIRECTION ( 'NONE',  ( 0.0000000000000000000, 0.0000000000000000000, 1.000000000000000000 ) ) ;
#287 = CALENDAR_DATE ( 2020, 16, 3 ) ;
#288 = DIRECTION ( 'NONE',  ( 0.0000000000000000000, 1.000000000000000000, 0.0000000000000000000 ) ) ;
#289 = VECTOR ( 'NONE', #338, 1000.000000000000000 ) ;
#290 = PERSON_AND_ORGANIZATION ( #353, #272 ) ;
#291 = EDGE_CURVE ( 'NONE', #361, #68, #337, .T. ) ;
#292 = DIRECTION ( 'NONE',  ( 1.000000000000000000, 0.0000000000000000000, 0.0000000000000000000 ) ) ;
#293 = DATE_AND_TIME ( #185, #75 ) ;
#294 = CC_DESIGN_PERSON_AND_ORGANIZATION_ASSIGNMENT ( #117, #266, ( #136 ) ) ;
#295 = CALENDAR_DATE ( 2020, 16, 3 ) ;
#296 = PERSON_AND_ORGANIZATION ( #353, #272 ) ;
#297 = SHAPE_REPRESENTATION ( 'Rudus 6780100 Korotusrengas kaukolämpö 800x100', ( #309, #118 ), #222 ) ;
#298 = DIRECTION ( 'NONE',  ( -0.0000000000000000000, -1.000000000000000000, -0.0000000000000000000 ) ) ;
#299 = CC_DESIGN_APPROVAL ( #150, ( #218 ) ) ;
#300 = EDGE_CURVE ( 'NONE', #143, #68, #51, .T. ) ;
#301 = DIRECTION ( 'NONE',  ( 0.0000000000000000000, -0.0000000000000000000, 1.000000000000000000 ) ) ;
#302 = AXIS2_PLACEMENT_3D ( 'NONE', #232, #259, #88 ) ;
#303 = DATE_AND_TIME ( #328, #202 ) ;
#304 = CARTESIAN_POINT ( 'NONE',  ( 5.786456125971244586E-14, 100.0000000000000000, 472.5000000000000568 ) ) ;
#305 = ORIENTED_EDGE ( 'NONE', *, *, #242, .F. ) ;
#306 = CC_DESIGN_PERSON_AND_ORGANIZATION_ASSIGNMENT ( #290, #239, ( #166 ) ) ;
#307 = FACE_OUTER_BOUND ( 'NONE', #277, .T. ) ;
#308 = CC_DESIGN_APPROVAL ( #245, ( #136 ) ) ;
#309 = AXIS2_PLACEMENT_3D ( 'NONE', #61, #64, #195 ) ;
#310 = AXIS2_PLACEMENT_3D ( 'NONE', #124, #126, #250 ) ;
#311 = CARTESIAN_POINT ( 'NONE',  ( 0.0000000000000000000, 100.0000000000000000, 0.0000000000000000000 ) ) ;
#312 = EDGE_CURVE ( 'NONE', #164, #225, #362, .T. ) ;
#313 = ORIENTED_EDGE ( 'NONE', *, *, #255, .F. ) ;
#314 = PERSON_AND_ORGANIZATION ( #353, #272 ) ;
#315 = LOCAL_TIME ( 8, 42, 47.00000000000000000, #125 ) ;
#316 = EDGE_CURVE ( 'NONE', #331, #225, #184, .T. ) ;
#317 = FACE_OUTER_BOUND ( 'NONE', #80, .T. ) ;
#318 = CALENDAR_DATE ( 2020, 16, 3 ) ;
#319 = AXIS2_PLACEMENT_3D ( 'NONE', #311, #46, #94 ) ;
#320 = CC_DESIGN_DATE_AND_TIME_ASSIGNMENT ( #325, #243, ( #218 ) ) ;
#321 = DATE_AND_TIME ( #295, #129 ) ;
#322 = DATE_TIME_ROLE ( 'classification_date' ) ;
#323 = APPLICATION_CONTEXT ( 'configuration controlled 3d designs of mechanical parts and assemblies' ) ;
#324 = CC_DESIGN_APPROVAL ( #175, ( #207 ) ) ;
#325 = DATE_AND_TIME ( #252, #26 ) ;
#326 = COORDINATED_UNIVERSAL_TIME_OFFSET ( 2, 0, .AHEAD. ) ;
#327 = EDGE_CURVE ( 'NONE', #103, #143, #147, .T. ) ;
#328 = CALENDAR_DATE ( 2020, 16, 3 ) ;
#329 = EDGE_CURVE ( 'NONE', #331, #76, #100, .T. ) ;
#330 = APPROVAL_ROLE ( '' ) ;
#331 = VERTEX_POINT ( 'NONE', #7 ) ;
#332 = CIRCLE ( 'NONE', #363, 400.0000000000000000 ) ;
#333 = EDGE_LOOP ( 'NONE', ( #200, #305 ) ) ;
#334 = APPLICATION_PROTOCOL_DEFINITION ( 'international standard', 'config_control_design', 1994, #4 ) ;
#335 = CARTESIAN_POINT ( 'NONE',  ( 5.786456125971244586E-14, 100.0000000000000000, 472.5000000000000568 ) ) ;
#336 = COORDINATED_UNIVERSAL_TIME_OFFSET ( 2, 0, .AHEAD. ) ;
#337 = LINE ( 'NONE', #262, #174 ) ;
#338 = DIRECTION ( 'NONE',  ( -0.0000000000000000000, -1.000000000000000000, -0.0000000000000000000 ) ) ;
#339 = APPROVAL_DATE_TIME ( #47, #245 ) ;
#340 = DIRECTION ( 'NONE',  ( 0.0000000000000000000, 0.0000000000000000000, -1.000000000000000000 ) ) ;
#341 = DIRECTION ( 'NONE',  ( -5.551115123125781470E-17, 1.000000000000000000, 9.244463733058732095E-33 ) ) ;
#342 = PERSON_AND_ORGANIZATION_ROLE ( 'design_supplier' ) ;
#343 = PRODUCT_DEFINITION_SHAPE ( 'NONE', 'NONE',  #373 ) ;
#344 = CARTESIAN_POINT ( 'NONE',  ( 0.0000000000000000000, 100.0000000000000000, -400.0000000000000000 ) ) ;
#345 = CIRCLE ( 'NONE', #66, 472.5000000000000568 ) ;
#346 = PERSON_AND_ORGANIZATION_ROLE ( 'design_supplier' ) ;
#347 = APPROVAL_ROLE ( '' ) ;
#348 = CARTESIAN_POINT ( 'NONE',  ( 0.0000000000000000000, 0.0000000000000000000, 0.0000000000000000000 ) ) ;
#349 = DATE_AND_TIME ( #13, #152 ) ;
#350 = CC_DESIGN_PERSON_AND_ORGANIZATION_ASSIGNMENT ( #215, #342, ( #74 ) ) ;
#351 = DIRECTION ( 'NONE',  ( 1.000000000000000000, 0.0000000000000000000, 0.0000000000000000000 ) ) ;
#352 = DATE_AND_TIME ( #30, #201 ) ;
#353 = PERSON ( 'UNSPECIFIED', 'UNSPECIFIED', 'UNSPECIFIED', ('UNSPECIFIED'), ('UNSPECIFIED'), ('UNSPECIFIED') ) ;
#354 = SHAPE_REPRESENTATION_RELATIONSHIP ( 'NONE' , 'NONE' ,  #128, #45 ) ;
#355 = ORIENTED_EDGE ( 'NONE', *, *, #49, .F. ) ;
#356 = CARTESIAN_POINT ( 'NONE',  ( 0.0000000000000000000, 0.0000000000000000000, -472.5000000000000568 ) ) ;
#357 = ORIENTED_EDGE ( 'NONE', *, *, #312, .F. ) ;
#358 = ORGANIZATION ( 'NAUO-ORG1', 'UNSPECIFIED', 'UNSPECIFIED' ) ;
#359 = EDGE_LOOP ( 'NONE', ( #179, #167, #227, #39 ) ) ;
#360 = ADVANCED_FACE ( 'NONE', ( #132 ), #192, .T. ) ;
#361 = VERTEX_POINT ( 'NONE', #344 ) ;
#362 = CIRCLE ( 'NONE', #208, 472.5000000000000568 ) ;
#363 = AXIS2_PLACEMENT_3D ( 'NONE', #59, #193, #69 ) ;
#364 =( NAMED_UNIT ( * ) PLANE_ANGLE_UNIT ( ) SI_UNIT ( $, .RADIAN. ) );
#365 = COORDINATED_UNIVERSAL_TIME_OFFSET ( 2, 0, .AHEAD. ) ;
#366 = CARTESIAN_POINT ( 'NONE',  ( 0.0000000000000000000, 0.0000000000000000000, 0.0000000000000000000 ) ) ;
#367 = UNCERTAINTY_MEASURE_WITH_UNIT (LENGTH_MEASURE( 1.000000000000000082E-05 ), #22, 'distance_accuracy_value', 'NONE');
#368 = SECURITY_CLASSIFICATION_LEVEL ( 'unclassified' ) ;
#369 = APPROVAL_STATUS ( 'not_yet_approved' ) ;
#370 = PERSON_AND_ORGANIZATION_ROLE ( 'design_owner' ) ;
#371 = PERSON_AND_ORGANIZATION_ROLE ( 'design_owner' ) ;
#372 = APPROVAL_DATE_TIME ( #321, #175 ) ;
#373 = NEXT_ASSEMBLY_USAGE_OCCURRENCE ( 'NAUO1', ' ', ' ', #218, #207, $ ) ;
ENDSEC;
END-ISO-10303-21;
