ISO-10303-21;
HEADER;
FILE_DESCRIPTION (( 'STEP AP203' ),
    '1' );
FILE_NAME ('Rudus 6780050 Korotusrengas kaukolämpö 800x50.step',
    '2020-03-16T06:41:15',
    ( '' ),
    ( '' ),
    'SwSTEP 2.0',
    'SolidWorks 2019',
    '' );
FILE_SCHEMA (( 'CONFIG_CONTROL_DESIGN' ));
ENDSEC;

DATA;
#1 = ORIENTED_EDGE ( 'NONE', *, *, #111, .F. ) ;
#2 = ORIENTED_EDGE ( 'NONE', *, *, #32, .T. ) ;
#3 = FACE_OUTER_BOUND ( 'NONE', #187, .T. ) ;
#4 = PRODUCT_RELATED_PRODUCT_CATEGORY ( 'detail', '', ( #172 ) ) ;
#5 = ORIENTED_EDGE ( 'NONE', *, *, #294, .T. ) ;
#6 = AXIS2_PLACEMENT_3D ( 'NONE', #292, #318, #20 ) ;
#7 = DIRECTION ( 'NONE',  ( 0.0000000000000000000, -0.0000000000000000000, 1.000000000000000000 ) ) ;
#8 = CALENDAR_DATE ( 2020, 16, 3 ) ;
#9 = ORIENTED_EDGE ( 'NONE', *, *, #257, .T. ) ;
#10 = COORDINATED_UNIVERSAL_TIME_OFFSET ( 2, 0, .AHEAD. ) ;
#11 = CC_DESIGN_PERSON_AND_ORGANIZATION_ASSIGNMENT ( #68, #254, ( #266 ) ) ;
#12 = DATE_AND_TIME ( #45, #14 ) ;
#13 = LINE ( 'NONE', #101, #233 ) ;
#14 = LOCAL_TIME ( 8, 41, 15.00000000000000000, #48 ) ;
#15 = DATE_AND_TIME ( #8, #115 ) ;
#16 = DIRECTION ( 'NONE',  ( -0.0000000000000000000, -1.000000000000000000, -0.0000000000000000000 ) ) ;
#17 = PERSON_AND_ORGANIZATION_ROLE ( 'classification_officer' ) ;
#18 = APPROVAL_ROLE ( '' ) ;
#19 = DIRECTION ( 'NONE',  ( 0.0000000000000000000, 0.0000000000000000000, -1.000000000000000000 ) ) ;
#20 = DIRECTION ( 'NONE',  ( 0.0000000000000000000, 0.0000000000000000000, 1.000000000000000000 ) ) ;
#21 = DIRECTION ( 'NONE',  ( 0.0000000000000000000, 0.0000000000000000000, 1.000000000000000000 ) ) ;
#22 = AXIS2_PLACEMENT_3D ( 'NONE', #109, #76, #269 ) ;
#23 = ADVANCED_FACE ( 'NONE', ( #37 ), #24, .F. ) ;
#24 = CYLINDRICAL_SURFACE ( 'NONE', #136, 400.0000000000000000 ) ;
#25 = APPROVAL ( #139, 'UNSPECIFIED' ) ;
#26 = APPROVAL ( #203, 'UNSPECIFIED' ) ;
#27 = CYLINDRICAL_SURFACE ( 'NONE', #58, 472.5000000000000568 ) ;
#28 = APPLICATION_CONTEXT ( 'configuration controlled 3d designs of mechanical parts and assemblies' ) ;
#29 = CLOSED_SHELL ( 'NONE', ( #23, #228, #347, #230, #295, #281 ) ) ;
#30 = ORGANIZATION ( 'UNSPECIFIED', 'UNSPECIFIED', '' ) ;
#31 = CC_DESIGN_SECURITY_CLASSIFICATION ( #131, ( #266 ) ) ;
#32 = EDGE_CURVE ( 'NONE', #279, #91, #13, .T. ) ;
#33 = DIRECTION ( 'NONE',  ( 0.0000000000000000000, 0.0000000000000000000, 1.000000000000000000 ) ) ;
#34 = DIRECTION ( 'NONE',  ( 0.0000000000000000000, 0.0000000000000000000, 1.000000000000000000 ) ) ;
#35 = EDGE_LOOP ( 'NONE', ( #9, #148 ) ) ;
#36 = APPROVAL_DATE_TIME ( #305, #351 ) ;
#37 = FACE_OUTER_BOUND ( 'NONE', #356, .T. ) ;
#38 = LOCAL_TIME ( 8, 41, 15.00000000000000000, #296 ) ;
#39 = SECURITY_CLASSIFICATION_LEVEL ( 'unclassified' ) ;
#40 = CIRCLE ( 'NONE', #276, 400.0000000000000000 ) ;
#41 = APPLICATION_CONTEXT ( 'configuration controlled 3d designs of mechanical parts and assemblies' ) ;
#42 = ORIENTED_EDGE ( 'NONE', *, *, #137, .T. ) ;
#43 = CC_DESIGN_DATE_AND_TIME_ASSIGNMENT ( #132, #107, ( #96 ) ) ;
#44 = CARTESIAN_POINT ( 'NONE',  ( 0.0000000000000000000, 0.0000000000000000000, 0.0000000000000000000 ) ) ;
#45 = CALENDAR_DATE ( 2020, 16, 3 ) ;
#46 =( NAMED_UNIT ( * ) PLANE_ANGLE_UNIT ( ) SI_UNIT ( $, .RADIAN. ) );
#47 = DATE_AND_TIME ( #315, #188 ) ;
#48 = COORDINATED_UNIVERSAL_TIME_OFFSET ( 2, 0, .AHEAD. ) ;
#49 = DATE_AND_TIME ( #100, #51 ) ;
#50 = AXIS2_PLACEMENT_3D ( 'NONE', #308, #123, #278 ) ;
#51 = LOCAL_TIME ( 8, 41, 15.00000000000000000, #262 ) ;
#52 = APPROVAL_ROLE ( '' ) ;
#53 = CARTESIAN_POINT ( 'NONE',  ( 0.0000000000000000000, 0.0000000000000000000, 0.0000000000000000000 ) ) ;
#54 = PERSON_AND_ORGANIZATION ( #55, #30 ) ;
#55 = PERSON ( 'UNSPECIFIED', 'UNSPECIFIED', 'UNSPECIFIED', ('UNSPECIFIED'), ('UNSPECIFIED'), ('UNSPECIFIED') ) ;
#56 = CARTESIAN_POINT ( 'NONE',  ( 0.0000000000000000000, 0.0000000000000000000, -472.5000000000000568 ) ) ;
#57 = ORIENTED_EDGE ( 'NONE', *, *, #204, .F. ) ;
#58 = AXIS2_PLACEMENT_3D ( 'NONE', #151, #249, #88 ) ;
#59 = CALENDAR_DATE ( 2020, 16, 3 ) ;
#60 = DESIGN_CONTEXT ( 'detailed design', #28, 'design' ) ;
#61 = DIRECTION ( 'NONE',  ( -0.0000000000000000000, -1.000000000000000000, -0.0000000000000000000 ) ) ;
#62 = DATE_TIME_ROLE ( 'classification_date' ) ;
#63 = ORIENTED_EDGE ( 'NONE', *, *, #244, .T. ) ;
#64 = ORIENTED_EDGE ( 'NONE', *, *, #94, .T. ) ;
#65 = SHAPE_DEFINITION_REPRESENTATION ( #367, #141 ) ;
#66 = SECURITY_CLASSIFICATION ( '', '', #39 ) ;
#67 = APPROVAL_STATUS ( 'not_yet_approved' ) ;
#68 = PERSON_AND_ORGANIZATION ( #55, #30 ) ;
#69 = PERSON_AND_ORGANIZATION ( #55, #30 ) ;
#70 = DIRECTION ( 'NONE',  ( -0.0000000000000000000, -1.000000000000000000, -0.0000000000000000000 ) ) ;
#71 = CARTESIAN_POINT ( 'NONE',  ( 0.0000000000000000000, 50.00000000000000000, 0.0000000000000000000 ) ) ;
#72 = APPROVAL ( #339, 'UNSPECIFIED' ) ;
#73 = DATE_AND_TIME ( #291, #189 ) ;
#74 = FACE_OUTER_BOUND ( 'NONE', #218, .T. ) ;
#75 = EDGE_CURVE ( 'NONE', #255, #193, #82, .T. ) ;
#76 = DIRECTION ( 'NONE',  ( -5.551115123125781470E-17, 1.000000000000000000, 9.244463733058732095E-33 ) ) ;
#77 = VECTOR ( 'NONE', #119, 1000.000000000000000 ) ;
#78 = VERTEX_POINT ( 'NONE', #355 ) ;
#79 = APPLICATION_PROTOCOL_DEFINITION ( 'international standard', 'config_control_design', 1994, #328 ) ;
#80 = DATE_TIME_ROLE ( 'classification_date' ) ;
#81 = LOCAL_TIME ( 8, 41, 15.00000000000000000, #330 ) ;
#82 = CIRCLE ( 'NONE', #144, 472.5000000000000568 ) ;
#83 = DESIGN_CONTEXT ( 'detailed design', #328, 'design' ) ;
#84 = DIRECTION ( 'NONE',  ( 0.0000000000000000000, 0.0000000000000000000, -1.000000000000000000 ) ) ;
#85 = DIRECTION ( 'NONE',  ( 0.0000000000000000000, 0.0000000000000000000, 1.000000000000000000 ) ) ;
#86 =( REPRESENTATION_RELATIONSHIP ('NONE','NONE', #245, #141 ) REPRESENTATION_RELATIONSHIP_WITH_TRANSFORMATION ( #198 )SHAPE_REPRESENTATION_RELATIONSHIP( ) );
#87 = CARTESIAN_POINT ( 'NONE',  ( 0.0000000000000000000, 0.0000000000000000000, -400.0000000000000000 ) ) ;
#88 = DIRECTION ( 'NONE',  ( 0.0000000000000000000, 0.0000000000000000000, -1.000000000000000000 ) ) ;
#89 = ORIENTED_EDGE ( 'NONE', *, *, #170, .F. ) ;
#90 = DIRECTION ( 'NONE',  ( 0.0000000000000000000, 1.000000000000000000, 0.0000000000000000000 ) ) ;
#91 = VERTEX_POINT ( 'NONE', #87 ) ;
#92 =( GEOMETRIC_REPRESENTATION_CONTEXT ( 3 ) GLOBAL_UNCERTAINTY_ASSIGNED_CONTEXT ( ( #154 ) ) GLOBAL_UNIT_ASSIGNED_CONTEXT ( ( #135, #46, #95 ) ) REPRESENTATION_CONTEXT ( 'NONE', 'WORKASPACE' ) );
#93 = DIRECTION ( 'NONE',  ( 0.0000000000000000000, 0.0000000000000000000, 1.000000000000000000 ) ) ;
#94 = EDGE_CURVE ( 'NONE', #78, #306, #219, .T. ) ;
#95 =( NAMED_UNIT ( * ) SI_UNIT ( $, .STERADIAN. ) SOLID_ANGLE_UNIT ( ) );
#96 = PRODUCT_DEFINITION ( 'UNKNOWN', '', #266, #83 ) ;
#97 = APPROVAL_STATUS ( 'not_yet_approved' ) ;
#98 = CC_DESIGN_PERSON_AND_ORGANIZATION_ASSIGNMENT ( #240, #173, ( #178 ) ) ;
#99 = APPROVAL_DATE_TIME ( #227, #72 ) ;
#100 = CALENDAR_DATE ( 2020, 16, 3 ) ;
#101 = CARTESIAN_POINT ( 'NONE',  ( 0.0000000000000000000, 50.00000000000000000, -400.0000000000000000 ) ) ;
#102 = CC_DESIGN_PERSON_AND_ORGANIZATION_ASSIGNMENT ( #106, #285, ( #322 ) ) ;
#103 = CARTESIAN_POINT ( 'NONE',  ( 0.0000000000000000000, 50.00000000000000000, 0.0000000000000000000 ) ) ;
#104 = PERSON_AND_ORGANIZATION ( #55, #30 ) ;
#105 = PERSON_AND_ORGANIZATION_ROLE ( 'classification_officer' ) ;
#106 = PERSON_AND_ORGANIZATION ( #55, #30 ) ;
#107 = DATE_TIME_ROLE ( 'creation_date' ) ;
#108 = DIRECTION ( 'NONE',  ( 0.0000000000000000000, -0.0000000000000000000, 1.000000000000000000 ) ) ;
#109 = CARTESIAN_POINT ( 'NONE',  ( 0.0000000000000000000, -161.7731247645711790, 0.0000000000000000000 ) ) ;
#110 = APPLICATION_CONTEXT ( 'configuration controlled 3d designs of mechanical parts and assemblies' ) ;
#111 = EDGE_CURVE ( 'NONE', #193, #332, #299, .T. ) ;
#112 = APPROVAL_PERSON_ORGANIZATION ( #143, #351, #238 ) ;
#113 = LOCAL_TIME ( 8, 41, 15.00000000000000000, #323 ) ;
#114 = CC_DESIGN_APPROVAL ( #26, ( #131 ) ) ;
#115 = LOCAL_TIME ( 8, 41, 15.00000000000000000, #169 ) ;
#116 = CARTESIAN_POINT ( 'NONE',  ( 0.0000000000000000000, 50.00000000000000000, 0.0000000000000000000 ) ) ;
#117 = ADVANCED_BREP_SHAPE_REPRESENTATION ( '', ( #158, #202 ), #92 ) ;
#118 = ORIENTED_EDGE ( 'NONE', *, *, #111, .T. ) ;
#119 = DIRECTION ( 'NONE',  ( -0.0000000000000000000, -1.000000000000000000, -0.0000000000000000000 ) ) ;
#120 = PLANE ( 'NONE',  #217 ) ;
#121 = ORIENTED_EDGE ( 'NONE', *, *, #94, .F. ) ;
#122 =( GEOMETRIC_REPRESENTATION_CONTEXT ( 3 ) GLOBAL_UNCERTAINTY_ASSIGNED_CONTEXT ( ( #250 ) ) GLOBAL_UNIT_ASSIGNED_CONTEXT ( ( #140, #346, #176 ) ) REPRESENTATION_CONTEXT ( 'NONE', 'WORKASPACE' ) );
#123 = DIRECTION ( 'NONE',  ( -0.0000000000000000000, -1.000000000000000000, -0.0000000000000000000 ) ) ;
#124 = ORIENTED_EDGE ( 'NONE', *, *, #261, .F. ) ;
#125 = PERSON_AND_ORGANIZATION ( #55, #30 ) ;
#126 = DATE_TIME_ROLE ( 'classification_date' ) ;
#127 = AXIS2_PLACEMENT_3D ( 'NONE', #155, #90, #33 ) ;
#128 = CC_DESIGN_PERSON_AND_ORGANIZATION_ASSIGNMENT ( #256, #199, ( #166 ) ) ;
#129 = DATE_AND_TIME ( #313, #224 ) ;
#130 = CC_DESIGN_SECURITY_CLASSIFICATION ( #66, ( #322 ) ) ;
#131 = SECURITY_CLASSIFICATION ( '', '', #194 ) ;
#132 = DATE_AND_TIME ( #371, #38 ) ;
#133 = MECHANICAL_CONTEXT ( 'NONE', #41, 'mechanical' ) ;
#134 = SHAPE_DEFINITION_REPRESENTATION ( #267, #245 ) ;
#135 =( LENGTH_UNIT ( ) NAMED_UNIT ( * ) SI_UNIT ( .MILLI., .METRE. ) );
#136 = AXIS2_PLACEMENT_3D ( 'NONE', #370, #147, #84 ) ;
#137 = EDGE_CURVE ( 'NONE', #255, #353, #253, .T. ) ;
#138 = FACE_BOUND ( 'NONE', #35, .T. ) ;
#139 = APPROVAL_STATUS ( 'not_yet_approved' ) ;
#140 =( LENGTH_UNIT ( ) NAMED_UNIT ( * ) SI_UNIT ( .MILLI., .METRE. ) );
#141 = SHAPE_REPRESENTATION ( 'kaivo-osa-korotusrengas_Kaukol„mp”', ( #202 ), #92 ) ;
#142 = APPLICATION_PROTOCOL_DEFINITION ( 'international standard', 'config_control_design', 1994, #110 ) ;
#143 = PERSON_AND_ORGANIZATION ( #55, #30 ) ;
#144 = AXIS2_PLACEMENT_3D ( 'NONE', #150, #248, #352 ) ;
#145 = CC_DESIGN_APPROVAL ( #25, ( #96 ) ) ;
#146 = APPROVAL_PERSON_ORGANIZATION ( #365, #26, #225 ) ;
#147 = DIRECTION ( 'NONE',  ( -0.0000000000000000000, -1.000000000000000000, -0.0000000000000000000 ) ) ;
#148 = ORIENTED_EDGE ( 'NONE', *, *, #261, .T. ) ;
#149 = CARTESIAN_POINT ( 'NONE',  ( 0.0000000000000000000, 0.0000000000000000000, 0.0000000000000000000 ) ) ;
#150 = CARTESIAN_POINT ( 'NONE',  ( 0.0000000000000000000, 50.00000000000000000, 0.0000000000000000000 ) ) ;
#151 = CARTESIAN_POINT ( 'NONE',  ( 0.0000000000000000000, 50.00000000000000000, 0.0000000000000000000 ) ) ;
#152 = AXIS2_PLACEMENT_3D ( 'NONE', #103, #201, #343 ) ;
#153 = CC_DESIGN_APPROVAL ( #72, ( #66 ) ) ;
#154 = UNCERTAINTY_MEASURE_WITH_UNIT (LENGTH_MEASURE( 1.000000000000000082E-05 ), #135, 'distance_accuracy_value', 'NONE');
#155 = CARTESIAN_POINT ( 'NONE',  ( 0.0000000000000000000, 50.00000000000000000, 0.0000000000000000000 ) ) ;
#156 = FACE_OUTER_BOUND ( 'NONE', #309, .T. ) ;
#157 = EDGE_LOOP ( 'NONE', ( #89, #325 ) ) ;
#158 = MANIFOLD_SOLID_BREP ( 'Boss-Extrude-rengas', #29 ) ;
#159 = PERSON_AND_ORGANIZATION ( #55, #30 ) ;
#160 = ORIENTED_EDGE ( 'NONE', *, *, #32, .F. ) ;
#161 = FACE_BOUND ( 'NONE', #157, .T. ) ;
#162 = CALENDAR_DATE ( 2020, 16, 3 ) ;
#163 = EDGE_LOOP ( 'NONE', ( #209, #302 ) ) ;
#164 = APPROVAL_STATUS ( 'not_yet_approved' ) ;
#165 = CARTESIAN_POINT ( 'NONE',  ( 0.0000000000000000000, 0.0000000000000000000, 0.0000000000000000000 ) ) ;
#166 = PRODUCT_DEFINITION ( 'UNKNOWN', '', #322, #60 ) ;
#167 = APPLICATION_PROTOCOL_DEFINITION ( 'international standard', 'config_control_design', 1994, #41 ) ;
#168 = DIRECTION ( 'NONE',  ( 1.000000000000000000, 0.0000000000000000000, 0.0000000000000000000 ) ) ;
#169 = COORDINATED_UNIVERSAL_TIME_OFFSET ( 2, 0, .AHEAD. ) ;
#170 = EDGE_CURVE ( 'NONE', #279, #78, #300, .T. ) ;
#171 = DATE_TIME_ROLE ( 'creation_date' ) ;
#172 = PRODUCT ( 'kaivo-osa-korotusrengas_Kaukol„mp”', 'kaivo-osa-korotusrengas_Kaukol„mp”', '', ( #133 ) ) ;
#173 = PERSON_AND_ORGANIZATION_ROLE ( 'classification_officer' ) ;
#174 = EDGE_CURVE ( 'NONE', #332, #353, #213, .T. ) ;
#175 = CALENDAR_DATE ( 2020, 16, 3 ) ;
#176 =( NAMED_UNIT ( * ) SI_UNIT ( $, .STERADIAN. ) SOLID_ANGLE_UNIT ( ) );
#177 = VECTOR ( 'NONE', #61, 1000.000000000000000 ) ;
#178 = SECURITY_CLASSIFICATION ( '', '', #336 ) ;
#179 = CC_DESIGN_PERSON_AND_ORGANIZATION_ASSIGNMENT ( #288, #263, ( #322 ) ) ;
#180 = PERSON_AND_ORGANIZATION_ROLE ( 'creator' ) ;
#181 = CC_DESIGN_DATE_AND_TIME_ASSIGNMENT ( #73, #126, ( #131 ) ) ;
#182 = DIRECTION ( 'NONE',  ( 0.0000000000000000000, 1.000000000000000000, 0.0000000000000000000 ) ) ;
#183 = FACE_OUTER_BOUND ( 'NONE', #163, .T. ) ;
#184 = CARTESIAN_POINT ( 'NONE',  ( 0.0000000000000000000, 50.00000000000000000, -400.0000000000000000 ) ) ;
#185 = AXIS2_PLACEMENT_3D ( 'NONE', #149, #251, #34 ) ;
#186 = APPROVAL_PERSON_ORGANIZATION ( #69, #208, #200 ) ;
#187 = EDGE_LOOP ( 'NONE', ( #271, #57, #118, #349 ) ) ;
#188 = LOCAL_TIME ( 8, 41, 15.00000000000000000, #362 ) ;
#189 = LOCAL_TIME ( 8, 41, 15.00000000000000000, #312 ) ;
#190 = EDGE_LOOP ( 'NONE', ( #215, #329 ) ) ;
#191 = APPROVAL ( #164, 'UNSPECIFIED' ) ;
#192 = CARTESIAN_POINT ( 'NONE',  ( 5.786456125971244586E-14, 50.00000000000000000, 472.5000000000000568 ) ) ;
#193 = VERTEX_POINT ( 'NONE', #236 ) ;
#194 = SECURITY_CLASSIFICATION_LEVEL ( 'unclassified' ) ;
#195 = COORDINATED_UNIVERSAL_TIME_OFFSET ( 2, 0, .AHEAD. ) ;
#196 = ORIENTED_EDGE ( 'NONE', *, *, #75, .F. ) ;
#197 = AXIS2_PLACEMENT_3D ( 'NONE', #53, #21, #211 ) ;
#198 = ITEM_DEFINED_TRANSFORMATION ( 'NONE', 'NONE', #22,  #202 ) ;
#199 = PERSON_AND_ORGANIZATION_ROLE ( 'creator' ) ;
#200 = APPROVAL_ROLE ( '' ) ;
#201 = DIRECTION ( 'NONE',  ( 0.0000000000000000000, 1.000000000000000000, 0.0000000000000000000 ) ) ;
#202 = AXIS2_PLACEMENT_3D ( 'NONE', #165, #259, #311 ) ;
#203 = APPROVAL_STATUS ( 'not_yet_approved' ) ;
#204 = EDGE_CURVE ( 'NONE', #193, #255, #334, .T. ) ;
#205 = PRODUCT_DEFINITION_SHAPE ( 'NONE', 'NONE',  #373 ) ;
#206 = CARTESIAN_POINT ( 'NONE',  ( 5.786456125971244586E-14, 50.00000000000000000, 472.5000000000000568 ) ) ;
#207 = APPROVAL_PERSON_ORGANIZATION ( #240, #297, #52 ) ;
#208 = APPROVAL ( #97, 'UNSPECIFIED' ) ;
#209 = ORIENTED_EDGE ( 'NONE', *, *, #204, .T. ) ;
#210 = PERSON_AND_ORGANIZATION ( #55, #30 ) ;
#211 = DIRECTION ( 'NONE',  ( 1.000000000000000000, 0.0000000000000000000, 0.0000000000000000000 ) ) ;
#212 = DATE_AND_TIME ( #175, #113 ) ;
#213 = CIRCLE ( 'NONE', #6, 472.5000000000000568 ) ;
#214 = CC_DESIGN_PERSON_AND_ORGANIZATION_ASSIGNMENT ( #125, #286, ( #172 ) ) ;
#215 = ORIENTED_EDGE ( 'NONE', *, *, #174, .F. ) ;
#216 = CC_DESIGN_PERSON_AND_ORGANIZATION_ASSIGNMENT ( #344, #321, ( #232 ) ) ;
#217 = AXIS2_PLACEMENT_3D ( 'NONE', #116, #252, #7 ) ;
#218 = EDGE_LOOP ( 'NONE', ( #196, #42, #63, #1 ) ) ;
#219 = LINE ( 'NONE', #307, #77 ) ;
#220 = CYLINDRICAL_SURFACE ( 'NONE', #50, 400.0000000000000000 ) ;
#221 = CC_DESIGN_DATE_AND_TIME_ASSIGNMENT ( #129, #80, ( #178 ) ) ;
#222 = APPROVAL_DATE_TIME ( #47, #208 ) ;
#223 = CC_DESIGN_PERSON_AND_ORGANIZATION_ASSIGNMENT ( #159, #289, ( #266 ) ) ;
#224 = LOCAL_TIME ( 8, 41, 15.00000000000000000, #337 ) ;
#225 = APPROVAL_ROLE ( '' ) ;
#226 = DIRECTION ( 'NONE',  ( 0.0000000000000000000, 0.0000000000000000000, 1.000000000000000000 ) ) ;
#227 = DATE_AND_TIME ( #162, #277 ) ;
#228 = ADVANCED_FACE ( 'NONE', ( #74 ), #338, .T. ) ;
#229 = PERSON_AND_ORGANIZATION ( #55, #30 ) ;
#230 = ADVANCED_FACE ( 'NONE', ( #364, #138 ), #231, .F. ) ;
#231 = PLANE ( 'NONE',  #341 ) ;
#232 = PRODUCT ( 'Rudus 6780050 Korotusrengas kaukolämpö 800x50', 'Rudus 6780050 Korotusrengas kaukolämpö 800x50', '', ( #243 ) ) ;
#233 = VECTOR ( 'NONE', #70, 1000.000000000000000 ) ;
#234 = DATE_AND_TIME ( #283, #326 ) ;
#235 = APPROVAL_PERSON_ORGANIZATION ( #210, #25, #270 ) ;
#236 = CARTESIAN_POINT ( 'NONE',  ( 0.0000000000000000000, 50.00000000000000000, -472.5000000000000568 ) ) ;
#237 = DIRECTION ( 'NONE',  ( 0.0000000000000000000, 0.0000000000000000000, 1.000000000000000000 ) ) ;
#238 = APPROVAL_ROLE ( '' ) ;
#239 = PRODUCT_RELATED_PRODUCT_CATEGORY ( 'detail', '', ( #232 ) ) ;
#240 = PERSON_AND_ORGANIZATION ( #320, #260 ) ;
#241 = CIRCLE ( 'NONE', #273, 400.0000000000000000 ) ;
#242 = APPROVAL_PERSON_ORGANIZATION ( #359, #191, #290 ) ;
#243 = MECHANICAL_CONTEXT ( 'NONE', #110, 'mechanical' ) ;
#244 = EDGE_CURVE ( 'NONE', #353, #332, #246, .T. ) ;
#245 = SHAPE_REPRESENTATION ( 'Rudus 6780050 Korotusrengas kaukolämpö 800x50', ( #197, #22 ), #122 ) ;
#246 = CIRCLE ( 'NONE', #316, 472.5000000000000568 ) ;
#247 = CC_DESIGN_APPROVAL ( #191, ( #322 ) ) ;
#248 = DIRECTION ( 'NONE',  ( 0.0000000000000000000, 1.000000000000000000, 0.0000000000000000000 ) ) ;
#249 = DIRECTION ( 'NONE',  ( -0.0000000000000000000, -1.000000000000000000, -0.0000000000000000000 ) ) ;
#250 = UNCERTAINTY_MEASURE_WITH_UNIT (LENGTH_MEASURE( 1.000000000000000082E-05 ), #140, 'distance_accuracy_value', 'NONE');
#251 = DIRECTION ( 'NONE',  ( 0.0000000000000000000, 1.000000000000000000, 0.0000000000000000000 ) ) ;
#252 = DIRECTION ( 'NONE',  ( 0.0000000000000000000, 1.000000000000000000, 0.0000000000000000000 ) ) ;
#253 = LINE ( 'NONE', #192, #368 ) ;
#254 = PERSON_AND_ORGANIZATION_ROLE ( 'design_supplier' ) ;
#255 = VERTEX_POINT ( 'NONE', #206 ) ;
#256 = PERSON_AND_ORGANIZATION ( #55, #30 ) ;
#257 = EDGE_CURVE ( 'NONE', #91, #306, #345, .T. ) ;
#258 = CALENDAR_DATE ( 2020, 16, 3 ) ;
#259 = DIRECTION ( 'NONE',  ( 0.0000000000000000000, 0.0000000000000000000, 1.000000000000000000 ) ) ;
#260 = ORGANIZATION ( 'NAUO-ORG1', 'UNSPECIFIED', 'UNSPECIFIED' ) ;
#261 = EDGE_CURVE ( 'NONE', #306, #91, #241, .T. ) ;
#262 = COORDINATED_UNIVERSAL_TIME_OFFSET ( 2, 0, .AHEAD. ) ;
#263 = PERSON_AND_ORGANIZATION_ROLE ( 'creator' ) ;
#264 = COORDINATED_UNIVERSAL_TIME_OFFSET ( 2, 0, .AHEAD. ) ;
#265 = CARTESIAN_POINT ( 'NONE',  ( 0.0000000000000000000, 0.0000000000000000000, 0.0000000000000000000 ) ) ;
#266 = PRODUCT_DEFINITION_FORMATION_WITH_SPECIFIED_SOURCE ( 'ANY', '', #232, .NOT_KNOWN. ) ;
#267 = PRODUCT_DEFINITION_SHAPE ( 'NONE', 'NONE',  #96 ) ;
#268 = DIRECTION ( 'NONE',  ( 0.0000000000000000000, 1.000000000000000000, 0.0000000000000000000 ) ) ;
#269 = DIRECTION ( 'NONE',  ( -1.000000000000000000, -5.551115123125782702E-17, 2.775557561562891351E-16 ) ) ;
#270 = APPROVAL_ROLE ( '' ) ;
#271 = ORIENTED_EDGE ( 'NONE', *, *, #137, .F. ) ;
#272 = CONTEXT_DEPENDENT_SHAPE_REPRESENTATION ( #86, #205 ) ;
#273 = AXIS2_PLACEMENT_3D ( 'NONE', #304, #182, #93 ) ;
#274 = APPROVAL_DATE_TIME ( #212, #25 ) ;
#275 = CARTESIAN_POINT ( 'NONE',  ( 0.0000000000000000000, 50.00000000000000000, 0.0000000000000000000 ) ) ;
#276 = AXIS2_PLACEMENT_3D ( 'NONE', #275, #350, #85 ) ;
#277 = LOCAL_TIME ( 8, 41, 15.00000000000000000, #264 ) ;
#278 = DIRECTION ( 'NONE',  ( 0.0000000000000000000, 0.0000000000000000000, -1.000000000000000000 ) ) ;
#279 = VERTEX_POINT ( 'NONE', #184 ) ;
#280 = ORIENTED_EDGE ( 'NONE', *, *, #170, .T. ) ;
#281 = ADVANCED_FACE ( 'NONE', ( #156 ), #220, .F. ) ;
#282 = ORIENTED_EDGE ( 'NONE', *, *, #257, .F. ) ;
#283 = CALENDAR_DATE ( 2020, 16, 3 ) ;
#284 = SHAPE_REPRESENTATION_RELATIONSHIP ( 'NONE' , 'NONE' ,  #141, #117 ) ;
#285 = PERSON_AND_ORGANIZATION_ROLE ( 'design_supplier' ) ;
#286 = PERSON_AND_ORGANIZATION_ROLE ( 'design_owner' ) ;
#287 = CC_DESIGN_DATE_AND_TIME_ASSIGNMENT ( #358, #62, ( #66 ) ) ;
#288 = PERSON_AND_ORGANIZATION ( #55, #30 ) ;
#289 = PERSON_AND_ORGANIZATION_ROLE ( 'creator' ) ;
#290 = APPROVAL_ROLE ( '' ) ;
#291 = CALENDAR_DATE ( 2020, 16, 3 ) ;
#292 = CARTESIAN_POINT ( 'NONE',  ( 0.0000000000000000000, 0.0000000000000000000, 0.0000000000000000000 ) ) ;
#293 = LOCAL_TIME ( 8, 41, 15.00000000000000000, #10 ) ;
#294 = EDGE_CURVE ( 'NONE', #78, #279, #40, .T. ) ;
#295 = ADVANCED_FACE ( 'NONE', ( #3 ), #27, .T. ) ;
#296 = COORDINATED_UNIVERSAL_TIME_OFFSET ( 2, 0, .AHEAD. ) ;
#297 = APPROVAL ( #67, 'UNKNOWN' ) ;
#298 = CARTESIAN_POINT ( 'NONE',  ( 4.898587196589412868E-14, 0.0000000000000000000, 400.0000000000000000 ) ) ;
#299 = LINE ( 'NONE', #331, #177 ) ;
#300 = CIRCLE ( 'NONE', #127, 400.0000000000000000 ) ;
#301 = CC_DESIGN_APPROVAL ( #297, ( #178 ) ) ;
#302 = ORIENTED_EDGE ( 'NONE', *, *, #75, .T. ) ;
#303 = DIRECTION ( 'NONE',  ( -0.0000000000000000000, -1.000000000000000000, -0.0000000000000000000 ) ) ;
#304 = CARTESIAN_POINT ( 'NONE',  ( 0.0000000000000000000, 0.0000000000000000000, 0.0000000000000000000 ) ) ;
#305 = DATE_AND_TIME ( #59, #81 ) ;
#306 = VERTEX_POINT ( 'NONE', #298 ) ;
#307 = CARTESIAN_POINT ( 'NONE',  ( 4.898587196589412868E-14, 50.00000000000000000, 400.0000000000000000 ) ) ;
#308 = CARTESIAN_POINT ( 'NONE',  ( 0.0000000000000000000, 50.00000000000000000, 0.0000000000000000000 ) ) ;
#309 = EDGE_LOOP ( 'NONE', ( #121, #5, #2, #124 ) ) ;
#310 = APPROVAL_DATE_TIME ( #234, #26 ) ;
#311 = DIRECTION ( 'NONE',  ( 1.000000000000000000, 0.0000000000000000000, 0.0000000000000000000 ) ) ;
#312 = COORDINATED_UNIVERSAL_TIME_OFFSET ( 2, 0, .AHEAD. ) ;
#313 = CALENDAR_DATE ( 2020, 16, 3 ) ;
#314 = CC_DESIGN_DATE_AND_TIME_ASSIGNMENT ( #12, #171, ( #166 ) ) ;
#315 = CALENDAR_DATE ( 2020, 16, 3 ) ;
#316 = AXIS2_PLACEMENT_3D ( 'NONE', #265, #366, #237 ) ;
#317 = APPLICATION_PROTOCOL_DEFINITION ( 'international standard', 'config_control_design', 1994, #28 ) ;
#318 = DIRECTION ( 'NONE',  ( 0.0000000000000000000, 1.000000000000000000, 0.0000000000000000000 ) ) ;
#319 = APPROVAL_STATUS ( 'not_yet_approved' ) ;
#320 = PERSON ( 'NAUO-PER1', 'UNSPECIFIED', 'UNSPECIFIED', ('UNSPECIFIED'), ('UNSPECIFIED'), ('UNSPECIFIED') ) ;
#321 = PERSON_AND_ORGANIZATION_ROLE ( 'design_owner' ) ;
#322 = PRODUCT_DEFINITION_FORMATION_WITH_SPECIFIED_SOURCE ( 'ANY', '', #172, .NOT_KNOWN. ) ;
#323 = COORDINATED_UNIVERSAL_TIME_OFFSET ( 2, 0, .AHEAD. ) ;
#324 = APPROVAL_DATE_TIME ( #49, #297 ) ;
#325 = ORIENTED_EDGE ( 'NONE', *, *, #294, .F. ) ;
#326 = LOCAL_TIME ( 8, 41, 15.00000000000000000, #195 ) ;
#327 = CC_DESIGN_PERSON_AND_ORGANIZATION_ASSIGNMENT ( #104, #17, ( #131 ) ) ;
#328 = APPLICATION_CONTEXT ( 'configuration controlled 3d designs of mechanical parts and assemblies' ) ;
#329 = ORIENTED_EDGE ( 'NONE', *, *, #244, .F. ) ;
#330 = COORDINATED_UNIVERSAL_TIME_OFFSET ( 2, 0, .AHEAD. ) ;
#331 = CARTESIAN_POINT ( 'NONE',  ( 0.0000000000000000000, 50.00000000000000000, -472.5000000000000568 ) ) ;
#332 = VERTEX_POINT ( 'NONE', #56 ) ;
#333 = APPROVAL_DATE_TIME ( #15, #191 ) ;
#334 = CIRCLE ( 'NONE', #152, 472.5000000000000568 ) ;
#335 = CC_DESIGN_APPROVAL ( #208, ( #166 ) ) ;
#336 = SECURITY_CLASSIFICATION_LEVEL ( 'unclassified' ) ;
#337 = COORDINATED_UNIVERSAL_TIME_OFFSET ( 2, 0, .AHEAD. ) ;
#338 = CYLINDRICAL_SURFACE ( 'NONE', #360, 472.5000000000000568 ) ;
#339 = APPROVAL_STATUS ( 'not_yet_approved' ) ;
#340 = CARTESIAN_POINT ( 'NONE',  ( 0.0000000000000000000, 0.0000000000000000000, 0.0000000000000000000 ) ) ;
#341 = AXIS2_PLACEMENT_3D ( 'NONE', #340, #268, #108 ) ;
#342 = CC_DESIGN_PERSON_AND_ORGANIZATION_ASSIGNMENT ( #54, #180, ( #96 ) ) ;
#343 = DIRECTION ( 'NONE',  ( 0.0000000000000000000, 0.0000000000000000000, 1.000000000000000000 ) ) ;
#344 = PERSON_AND_ORGANIZATION ( #55, #30 ) ;
#345 = CIRCLE ( 'NONE', #185, 400.0000000000000000 ) ;
#346 =( NAMED_UNIT ( * ) PLANE_ANGLE_UNIT ( ) SI_UNIT ( $, .RADIAN. ) );
#347 = ADVANCED_FACE ( 'NONE', ( #183, #161 ), #120, .T. ) ;
#348 = CC_DESIGN_PERSON_AND_ORGANIZATION_ASSIGNMENT ( #363, #105, ( #66 ) ) ;
#349 = ORIENTED_EDGE ( 'NONE', *, *, #174, .T. ) ;
#350 = DIRECTION ( 'NONE',  ( 0.0000000000000000000, 1.000000000000000000, 0.0000000000000000000 ) ) ;
#351 = APPROVAL ( #319, 'UNSPECIFIED' ) ;
#352 = DIRECTION ( 'NONE',  ( 0.0000000000000000000, 0.0000000000000000000, 1.000000000000000000 ) ) ;
#353 = VERTEX_POINT ( 'NONE', #357 ) ;
#354 = CC_DESIGN_APPROVAL ( #351, ( #266 ) ) ;
#355 = CARTESIAN_POINT ( 'NONE',  ( 4.898587196589412868E-14, 50.00000000000000000, 400.0000000000000000 ) ) ;
#356 = EDGE_LOOP ( 'NONE', ( #280, #64, #282, #160 ) ) ;
#357 = CARTESIAN_POINT ( 'NONE',  ( 5.786456125971244586E-14, 0.0000000000000000000, 472.5000000000000568 ) ) ;
#358 = DATE_AND_TIME ( #258, #293 ) ;
#359 = PERSON_AND_ORGANIZATION ( #55, #30 ) ;
#360 = AXIS2_PLACEMENT_3D ( 'NONE', #71, #16, #19 ) ;
#361 = APPROVAL_PERSON_ORGANIZATION ( #229, #72, #18 ) ;
#362 = COORDINATED_UNIVERSAL_TIME_OFFSET ( 2, 0, .AHEAD. ) ;
#363 = PERSON_AND_ORGANIZATION ( #55, #30 ) ;
#364 = FACE_OUTER_BOUND ( 'NONE', #190, .T. ) ;
#365 = PERSON_AND_ORGANIZATION ( #55, #30 ) ;
#366 = DIRECTION ( 'NONE',  ( 0.0000000000000000000, 1.000000000000000000, 0.0000000000000000000 ) ) ;
#367 = PRODUCT_DEFINITION_SHAPE ( 'NONE', 'NONE',  #166 ) ;
#368 = VECTOR ( 'NONE', #303, 1000.000000000000000 ) ;
#369 = AXIS2_PLACEMENT_3D ( 'NONE', #44, #226, #168 ) ;
#370 = CARTESIAN_POINT ( 'NONE',  ( 0.0000000000000000000, 50.00000000000000000, 0.0000000000000000000 ) ) ;
#371 = CALENDAR_DATE ( 2020, 16, 3 ) ;
#372 = CC_DESIGN_SECURITY_CLASSIFICATION ( #178, ( #373 ) ) ;
#373 = NEXT_ASSEMBLY_USAGE_OCCURRENCE ( 'NAUO1', ' ', ' ', #96, #166, $ ) ;
ENDSEC;
END-ISO-10303-21;
