ISO-10303-21;
HEADER;
FILE_DESCRIPTION (( 'STEP AP203' ),
    '1' );
FILE_NAME ('Rudus 6780035 Korotusrengas kaukolämpö 800x35.step',
    '2020-03-16T06:39:44',
    ( '' ),
    ( '' ),
    'SwSTEP 2.0',
    'SolidWorks 2019',
    '' );
FILE_SCHEMA (( 'CONFIG_CONTROL_DESIGN' ));
ENDSEC;

DATA;
#1 = LOCAL_TIME ( 8, 39, 44.00000000000000000, #36 ) ;
#2 = CYLINDRICAL_SURFACE ( 'NONE', #195, 472.5000000000000568 ) ;
#3 = APPROVAL_DATE_TIME ( #371, #178 ) ;
#4 = CARTESIAN_POINT ( 'NONE',  ( 4.898587196589412868E-14, 35.00000000000000000, 400.0000000000000000 ) ) ;
#5 = PERSON_AND_ORGANIZATION ( #197, #35 ) ;
#6 = CC_DESIGN_DATE_AND_TIME_ASSIGNMENT ( #129, #132, ( #245 ) ) ;
#7 = CC_DESIGN_APPROVAL ( #262, ( #204 ) ) ;
#8 = DIRECTION ( 'NONE',  ( 0.0000000000000000000, 1.000000000000000000, 0.0000000000000000000 ) ) ;
#9 = PERSON_AND_ORGANIZATION_ROLE ( 'classification_officer' ) ;
#10 = LOCAL_TIME ( 8, 39, 44.00000000000000000, #232 ) ;
#11 = DIRECTION ( 'NONE',  ( 0.0000000000000000000, 1.000000000000000000, 0.0000000000000000000 ) ) ;
#12 = DATE_AND_TIME ( #352, #192 ) ;
#13 = SHAPE_REPRESENTATION ( 'Rudus 6780035 Korotusrengas kaukolämpö 800x35', ( #321, #309 ), #338 ) ;
#14 = CARTESIAN_POINT ( 'NONE',  ( 5.786456125971244586E-14, 35.00000000000000000, 472.5000000000000568 ) ) ;
#15 = APPROVAL ( #196, 'UNSPECIFIED' ) ;
#16 = MECHANICAL_CONTEXT ( 'NONE', #83, 'mechanical' ) ;
#17 = DIRECTION ( 'NONE',  ( 0.0000000000000000000, 1.000000000000000000, 0.0000000000000000000 ) ) ;
#18 = LOCAL_TIME ( 8, 39, 44.00000000000000000, #269 ) ;
#19 = DIRECTION ( 'NONE',  ( -0.0000000000000000000, -1.000000000000000000, -0.0000000000000000000 ) ) ;
#20 = APPROVAL_PERSON_ORGANIZATION ( #287, #15, #202 ) ;
#21 =( NAMED_UNIT ( * ) PLANE_ANGLE_UNIT ( ) SI_UNIT ( $, .RADIAN. ) );
#22 = APPLICATION_PROTOCOL_DEFINITION ( 'international standard', 'config_control_design', 1994, #200 ) ;
#23 = AXIS2_PLACEMENT_3D ( 'NONE', #123, #150, #318 ) ;
#24 = ADVANCED_FACE ( 'NONE', ( #265 ), #2, .T. ) ;
#25 = PERSON_AND_ORGANIZATION_ROLE ( 'creator' ) ;
#26 = EDGE_CURVE ( 'NONE', #103, #68, #215, .T. ) ;
#27 = ORIENTED_EDGE ( 'NONE', *, *, #26, .T. ) ;
#28 = CIRCLE ( 'NONE', #281, 472.5000000000000568 ) ;
#29 = COORDINATED_UNIVERSAL_TIME_OFFSET ( 2, 0, .AHEAD. ) ;
#30 = ADVANCED_BREP_SHAPE_REPRESENTATION ( '', ( #227, #292 ), #203 ) ;
#31 = EDGE_LOOP ( 'NONE', ( #268, #72 ) ) ;
#32 = APPROVAL_STATUS ( 'not_yet_approved' ) ;
#33 = AXIS2_PLACEMENT_3D ( 'NONE', #130, #17, #160 ) ;
#34 = CARTESIAN_POINT ( 'NONE',  ( 0.0000000000000000000, 0.0000000000000000000, 0.0000000000000000000 ) ) ;
#35 = ORGANIZATION ( 'UNSPECIFIED', 'UNSPECIFIED', '' ) ;
#36 = COORDINATED_UNIVERSAL_TIME_OFFSET ( 2, 0, .AHEAD. ) ;
#37 = PRODUCT_DEFINITION_SHAPE ( 'NONE', 'NONE',  #256 ) ;
#38 = ORIENTED_EDGE ( 'NONE', *, *, #67, .F. ) ;
#39 = EDGE_CURVE ( 'NONE', #344, #205, #310, .T. ) ;
#40 = APPROVAL_ROLE ( '' ) ;
#41 = DIRECTION ( 'NONE',  ( -0.0000000000000000000, -1.000000000000000000, -0.0000000000000000000 ) ) ;
#42 = PERSON_AND_ORGANIZATION ( #197, #35 ) ;
#43 = CARTESIAN_POINT ( 'NONE',  ( 0.0000000000000000000, 0.0000000000000000000, 0.0000000000000000000 ) ) ;
#44 = APPROVAL_DATE_TIME ( #12, #364 ) ;
#45 = FACE_OUTER_BOUND ( 'NONE', #194, .T. ) ;
#46 = COORDINATED_UNIVERSAL_TIME_OFFSET ( 2, 0, .AHEAD. ) ;
#47 = DIRECTION ( 'NONE',  ( 1.000000000000000000, 0.0000000000000000000, 0.0000000000000000000 ) ) ;
#48 = CC_DESIGN_SECURITY_CLASSIFICATION ( #245, ( #273 ) ) ;
#49 = FACE_OUTER_BOUND ( 'NONE', #189, .T. ) ;
#50 = PRODUCT_RELATED_PRODUCT_CATEGORY ( 'detail', '', ( #370 ) ) ;
#51 = APPLICATION_CONTEXT ( 'configuration controlled 3d designs of mechanical parts and assemblies' ) ;
#52 = MECHANICAL_CONTEXT ( 'NONE', #51, 'mechanical' ) ;
#53 = APPROVAL_PERSON_ORGANIZATION ( #190, #258, #113 ) ;
#54 = AXIS2_PLACEMENT_3D ( 'NONE', #328, #105, #249 ) ;
#55 = CC_DESIGN_DATE_AND_TIME_ASSIGNMENT ( #358, #206, ( #256 ) ) ;
#56 = PERSON_AND_ORGANIZATION ( #197, #35 ) ;
#57 = ORGANIZATION ( 'NAUO-ORG1', 'UNSPECIFIED', 'UNSPECIFIED' ) ;
#58 = AXIS2_PLACEMENT_3D ( 'NONE', #91, #177, #295 ) ;
#59 = APPROVAL_DATE_TIME ( #169, #15 ) ;
#60 = AXIS2_PLACEMENT_3D ( 'NONE', #351, #363, #274 ) ;
#61 = ORIENTED_EDGE ( 'NONE', *, *, #39, .F. ) ;
#62 = FACE_OUTER_BOUND ( 'NONE', #264, .T. ) ;
#63 = CALENDAR_DATE ( 2020, 16, 3 ) ;
#64 = DESIGN_CONTEXT ( 'detailed design', #102, 'design' ) ;
#65 = ORIENTED_EDGE ( 'NONE', *, *, #147, .T. ) ;
#66 = DATE_AND_TIME ( #319, #78 ) ;
#67 = EDGE_CURVE ( 'NONE', #166, #116, #88, .T. ) ;
#68 = VERTEX_POINT ( 'NONE', #201 ) ;
#69 = LOCAL_TIME ( 8, 39, 44.00000000000000000, #208 ) ;
#70 = ORIENTED_EDGE ( 'NONE', *, *, #304, .T. ) ;
#71 = PERSON_AND_ORGANIZATION_ROLE ( 'design_supplier' ) ;
#72 = ORIENTED_EDGE ( 'NONE', *, *, #26, .F. ) ;
#73 = PERSON_AND_ORGANIZATION_ROLE ( 'design_owner' ) ;
#74 = CC_DESIGN_PERSON_AND_ORGANIZATION_ASSIGNMENT ( #291, #151, ( #343 ) ) ;
#75 = CARTESIAN_POINT ( 'NONE',  ( 0.0000000000000000000, 35.00000000000000000, 0.0000000000000000000 ) ) ;
#76 = PERSON_AND_ORGANIZATION ( #197, #35 ) ;
#77 = CARTESIAN_POINT ( 'NONE',  ( 0.0000000000000000000, 0.0000000000000000000, 0.0000000000000000000 ) ) ;
#78 = LOCAL_TIME ( 8, 39, 44.00000000000000000, #149 ) ;
#79 = CARTESIAN_POINT ( 'NONE',  ( 0.0000000000000000000, 0.0000000000000000000, 0.0000000000000000000 ) ) ;
#80 = CARTESIAN_POINT ( 'NONE',  ( 4.898587196589412868E-14, 35.00000000000000000, 400.0000000000000000 ) ) ;
#81 = CC_DESIGN_PERSON_AND_ORGANIZATION_ASSIGNMENT ( #56, #163, ( #312 ) ) ;
#82 = APPROVAL_PERSON_ORGANIZATION ( #330, #364, #298 ) ;
#83 = APPLICATION_CONTEXT ( 'configuration controlled 3d designs of mechanical parts and assemblies' ) ;
#84 = DIRECTION ( 'NONE',  ( 0.0000000000000000000, 0.0000000000000000000, -1.000000000000000000 ) ) ;
#85 = DIRECTION ( 'NONE',  ( -5.551115123125781470E-17, 1.000000000000000000, 9.244463733058732095E-33 ) ) ;
#86 = CC_DESIGN_DATE_AND_TIME_ASSIGNMENT ( #174, #98, ( #204 ) ) ;
#87 = ORIENTED_EDGE ( 'NONE', *, *, #275, .T. ) ;
#88 = CIRCLE ( 'NONE', #294, 472.5000000000000568 ) ;
#89 = APPROVAL_DATE_TIME ( #108, #262 ) ;
#90 = DATE_TIME_ROLE ( 'classification_date' ) ;
#91 = CARTESIAN_POINT ( 'NONE',  ( 0.0000000000000000000, 35.00000000000000000, 0.0000000000000000000 ) ) ;
#92 = CC_DESIGN_APPROVAL ( #178, ( #127 ) ) ;
#93 = PERSON_AND_ORGANIZATION ( #197, #35 ) ;
#94 = DIRECTION ( 'NONE',  ( 0.0000000000000000000, 0.0000000000000000000, 1.000000000000000000 ) ) ;
#95 = DATE_AND_TIME ( #63, #10 ) ;
#96 = APPROVAL ( #335, 'UNSPECIFIED' ) ;
#97 = CARTESIAN_POINT ( 'NONE',  ( 0.0000000000000000000, 0.0000000000000000000, -400.0000000000000000 ) ) ;
#98 = DATE_TIME_ROLE ( 'creation_date' ) ;
#99 = APPROVAL_PERSON_ORGANIZATION ( #76, #262, #183 ) ;
#100 = VERTEX_POINT ( 'NONE', #118 ) ;
#101 = CALENDAR_DATE ( 2020, 16, 3 ) ;
#102 = APPLICATION_CONTEXT ( 'configuration controlled 3d designs of mechanical parts and assemblies' ) ;
#103 = VERTEX_POINT ( 'NONE', #4 ) ;
#104 = APPLICATION_PROTOCOL_DEFINITION ( 'international standard', 'config_control_design', 1994, #83 ) ;
#105 = DIRECTION ( 'NONE',  ( 0.0000000000000000000, 1.000000000000000000, 0.0000000000000000000 ) ) ;
#106 = APPROVAL_DATE_TIME ( #157, #96 ) ;
#107 = DIRECTION ( 'NONE',  ( -0.0000000000000000000, -1.000000000000000000, -0.0000000000000000000 ) ) ;
#108 = DATE_AND_TIME ( #360, #168 ) ;
#109 = DIRECTION ( 'NONE',  ( 1.000000000000000000, 0.0000000000000000000, 0.0000000000000000000 ) ) ;
#110 = CC_DESIGN_PERSON_AND_ORGANIZATION_ASSIGNMENT ( #93, #259, ( #204 ) ) ;
#111 = CLOSED_SHELL ( 'NONE', ( #125, #24, #307, #311, #353, #317 ) ) ;
#112 = LINE ( 'NONE', #334, #139 ) ;
#113 = APPROVAL_ROLE ( '' ) ;
#114 = CC_DESIGN_PERSON_AND_ORGANIZATION_ASSIGNMENT ( #244, #266, ( #256 ) ) ;
#115 = APPROVAL_ROLE ( '' ) ;
#116 = VERTEX_POINT ( 'NONE', #230 ) ;
#117 = CALENDAR_DATE ( 2020, 16, 3 ) ;
#118 = CARTESIAN_POINT ( 'NONE',  ( 5.786456125971244586E-14, 35.00000000000000000, 472.5000000000000568 ) ) ;
#119 = EDGE_CURVE ( 'NONE', #116, #166, #214, .T. ) ;
#120 = ORIENTED_EDGE ( 'NONE', *, *, #224, .T. ) ;
#121 = CALENDAR_DATE ( 2020, 16, 3 ) ;
#122 = UNCERTAINTY_MEASURE_WITH_UNIT (LENGTH_MEASURE( 1.000000000000000082E-05 ), #333, 'distance_accuracy_value', 'NONE');
#123 = CARTESIAN_POINT ( 'NONE',  ( 0.0000000000000000000, 0.0000000000000000000, 0.0000000000000000000 ) ) ;
#124 = COORDINATED_UNIVERSAL_TIME_OFFSET ( 2, 0, .AHEAD. ) ;
#125 = ADVANCED_FACE ( 'NONE', ( #62 ), #349, .F. ) ;
#126 = SHAPE_DEFINITION_REPRESENTATION ( #37, #13 ) ;
#127 = SECURITY_CLASSIFICATION ( '', '', #289 ) ;
#128 = SHAPE_REPRESENTATION_RELATIONSHIP ( 'NONE' , 'NONE' ,  #131, #30 ) ;
#129 = DATE_AND_TIME ( #270, #272 ) ;
#130 = CARTESIAN_POINT ( 'NONE',  ( 0.0000000000000000000, 35.00000000000000000, 0.0000000000000000000 ) ) ;
#131 = SHAPE_REPRESENTATION ( 'kaivo-osa-korotusrengas_Kaukol„mp”', ( #292 ), #203 ) ;
#132 = DATE_TIME_ROLE ( 'classification_date' ) ;
#133 = APPROVAL_PERSON_ORGANIZATION ( #239, #252, #179 ) ;
#134 = EDGE_CURVE ( 'NONE', #68, #205, #171, .T. ) ;
#135 = LINE ( 'NONE', #80, #267 ) ;
#136 = DIRECTION ( 'NONE',  ( 0.0000000000000000000, -0.0000000000000000000, 1.000000000000000000 ) ) ;
#137 = CC_DESIGN_PERSON_AND_ORGANIZATION_ASSIGNMENT ( #283, #25, ( #343 ) ) ;
#138 = APPLICATION_PROTOCOL_DEFINITION ( 'international standard', 'config_control_design', 1994, #51 ) ;
#139 = VECTOR ( 'NONE', #305, 1000.000000000000000 ) ;
#140 = CC_DESIGN_SECURITY_CLASSIFICATION ( #127, ( #343 ) ) ;
#141 = EDGE_LOOP ( 'NONE', ( #286, #337, #173, #354 ) ) ;
#142 = LOCAL_TIME ( 8, 39, 44.00000000000000000, #124 ) ;
#143 = CC_DESIGN_DATE_AND_TIME_ASSIGNMENT ( #95, #90, ( #127 ) ) ;
#144 = PERSON_AND_ORGANIZATION_ROLE ( 'classification_officer' ) ;
#145 = VECTOR ( 'NONE', #148, 1000.000000000000000 ) ;
#146 = ORIENTED_EDGE ( 'NONE', *, *, #369, .T. ) ;
#147 = EDGE_CURVE ( 'NONE', #207, #100, #28, .T. ) ;
#148 = DIRECTION ( 'NONE',  ( -0.0000000000000000000, -1.000000000000000000, -0.0000000000000000000 ) ) ;
#149 = COORDINATED_UNIVERSAL_TIME_OFFSET ( 2, 0, .AHEAD. ) ;
#150 = DIRECTION ( 'NONE',  ( 0.0000000000000000000, 1.000000000000000000, 0.0000000000000000000 ) ) ;
#151 = PERSON_AND_ORGANIZATION_ROLE ( 'design_supplier' ) ;
#152 = ORIENTED_EDGE ( 'NONE', *, *, #134, .T. ) ;
#153 = COORDINATED_UNIVERSAL_TIME_OFFSET ( 2, 0, .AHEAD. ) ;
#154 = DIRECTION ( 'NONE',  ( -0.0000000000000000000, -1.000000000000000000, -0.0000000000000000000 ) ) ;
#155 = SECURITY_CLASSIFICATION_LEVEL ( 'unclassified' ) ;
#156 = DIRECTION ( 'NONE',  ( 0.0000000000000000000, 0.0000000000000000000, 1.000000000000000000 ) ) ;
#157 = DATE_AND_TIME ( #158, #18 ) ;
#158 = CALENDAR_DATE ( 2020, 16, 3 ) ;
#159 = CARTESIAN_POINT ( 'NONE',  ( 0.0000000000000000000, -161.7731247645711790, 0.0000000000000000000 ) ) ;
#160 = DIRECTION ( 'NONE',  ( 0.0000000000000000000, -0.0000000000000000000, 1.000000000000000000 ) ) ;
#161 = PERSON_AND_ORGANIZATION_ROLE ( 'classification_officer' ) ;
#162 = CARTESIAN_POINT ( 'NONE',  ( 0.0000000000000000000, 0.0000000000000000000, 0.0000000000000000000 ) ) ;
#163 = PERSON_AND_ORGANIZATION_ROLE ( 'design_owner' ) ;
#164 = AXIS2_PLACEMENT_3D ( 'NONE', #365, #107, #185 ) ;
#165 =( REPRESENTATION_RELATIONSHIP ('NONE','NONE', #13, #131 ) REPRESENTATION_RELATIONSHIP_WITH_TRANSFORMATION ( #342 )SHAPE_REPRESENTATION_RELATIONSHIP( ) );
#166 = VERTEX_POINT ( 'NONE', #176 ) ;
#167 = CC_DESIGN_PERSON_AND_ORGANIZATION_ASSIGNMENT ( #326, #73, ( #370 ) ) ;
#168 = LOCAL_TIME ( 8, 39, 44.00000000000000000, #300 ) ;
#169 = DATE_AND_TIME ( #117, #329 ) ;
#170 = APPROVAL_PERSON_ORGANIZATION ( #314, #178, #115 ) ;
#171 = LINE ( 'NONE', #288, #145 ) ;
#172 = COORDINATED_UNIVERSAL_TIME_OFFSET ( 2, 0, .AHEAD. ) ;
#173 = ORIENTED_EDGE ( 'NONE', *, *, #332, .T. ) ;
#174 = DATE_AND_TIME ( #257, #217 ) ;
#175 = CC_DESIGN_APPROVAL ( #252, ( #245 ) ) ;
#176 = CARTESIAN_POINT ( 'NONE',  ( 0.0000000000000000000, 0.0000000000000000000, -472.5000000000000568 ) ) ;
#177 = DIRECTION ( 'NONE',  ( 0.0000000000000000000, 1.000000000000000000, 0.0000000000000000000 ) ) ;
#178 = APPROVAL ( #348, 'UNSPECIFIED' ) ;
#179 = APPROVAL_ROLE ( '' ) ;
#180 = ORIENTED_EDGE ( 'NONE', *, *, #119, .T. ) ;
#181 = APPROVAL_STATUS ( 'not_yet_approved' ) ;
#182 = DIRECTION ( 'NONE',  ( 0.0000000000000000000, 1.000000000000000000, 0.0000000000000000000 ) ) ;
#183 = APPROVAL_ROLE ( '' ) ;
#184 = CC_DESIGN_PERSON_AND_ORGANIZATION_ASSIGNMENT ( #5, #323, ( #273 ) ) ;
#185 = DIRECTION ( 'NONE',  ( 0.0000000000000000000, 0.0000000000000000000, -1.000000000000000000 ) ) ;
#186 = DIRECTION ( 'NONE',  ( 0.0000000000000000000, 0.0000000000000000000, 1.000000000000000000 ) ) ;
#187 = DIRECTION ( 'NONE',  ( -0.0000000000000000000, -1.000000000000000000, -0.0000000000000000000 ) ) ;
#188 = DIRECTION ( 'NONE',  ( 0.0000000000000000000, 0.0000000000000000000, 1.000000000000000000 ) ) ;
#189 = EDGE_LOOP ( 'NONE', ( #65, #238 ) ) ;
#190 = PERSON_AND_ORGANIZATION ( #285, #57 ) ;
#191 = DIRECTION ( 'NONE',  ( -1.000000000000000000, -5.551115123125782702E-17, 2.775557561562891351E-16 ) ) ;
#192 = LOCAL_TIME ( 8, 39, 44.00000000000000000, #153 ) ;
#193 = AXIS2_PLACEMENT_3D ( 'NONE', #79, #186, #47 ) ;
#194 = EDGE_LOOP ( 'NONE', ( #38, #199 ) ) ;
#195 = AXIS2_PLACEMENT_3D ( 'NONE', #234, #41, #320 ) ;
#196 = APPROVAL_STATUS ( 'not_yet_approved' ) ;
#197 = PERSON ( 'UNSPECIFIED', 'UNSPECIFIED', 'UNSPECIFIED', ('UNSPECIFIED'), ('UNSPECIFIED'), ('UNSPECIFIED') ) ;
#198 = DIRECTION ( 'NONE',  ( 0.0000000000000000000, 0.0000000000000000000, 1.000000000000000000 ) ) ;
#199 = ORIENTED_EDGE ( 'NONE', *, *, #119, .F. ) ;
#200 = APPLICATION_CONTEXT ( 'configuration controlled 3d designs of mechanical parts and assemblies' ) ;
#201 = CARTESIAN_POINT ( 'NONE',  ( 0.0000000000000000000, 35.00000000000000000, -400.0000000000000000 ) ) ;
#202 = APPROVAL_ROLE ( '' ) ;
#203 =( GEOMETRIC_REPRESENTATION_CONTEXT ( 3 ) GLOBAL_UNCERTAINTY_ASSIGNED_CONTEXT ( ( #122 ) ) GLOBAL_UNIT_ASSIGNED_CONTEXT ( ( #333, #253, #271 ) ) REPRESENTATION_CONTEXT ( 'NONE', 'WORKASPACE' ) );
#204 = PRODUCT_DEFINITION ( 'UNKNOWN', '', #343, #64 ) ;
#205 = VERTEX_POINT ( 'NONE', #97 ) ;
#206 = DATE_TIME_ROLE ( 'creation_date' ) ;
#207 = VERTEX_POINT ( 'NONE', #235 ) ;
#208 = COORDINATED_UNIVERSAL_TIME_OFFSET ( 2, 0, .AHEAD. ) ;
#209 = CARTESIAN_POINT ( 'NONE',  ( 0.0000000000000000000, 0.0000000000000000000, 0.0000000000000000000 ) ) ;
#210 = CALENDAR_DATE ( 2020, 16, 3 ) ;
#211 = CC_DESIGN_PERSON_AND_ORGANIZATION_ASSIGNMENT ( #42, #71, ( #273 ) ) ;
#212 = LINE ( 'NONE', #14, #368 ) ;
#213 = APPROVAL_STATUS ( 'not_yet_approved' ) ;
#214 = CIRCLE ( 'NONE', #23, 472.5000000000000568 ) ;
#215 = CIRCLE ( 'NONE', #58, 400.0000000000000000 ) ;
#216 = CYLINDRICAL_SURFACE ( 'NONE', #164, 400.0000000000000000 ) ;
#217 = LOCAL_TIME ( 8, 39, 44.00000000000000000, #350 ) ;
#218 = PLANE ( 'NONE',  #313 ) ;
#219 = CC_DESIGN_PERSON_AND_ORGANIZATION_ASSIGNMENT ( #190, #161, ( #255 ) ) ;
#220 = LOCAL_TIME ( 8, 39, 44.00000000000000000, #29 ) ;
#221 = PERSON_AND_ORGANIZATION ( #197, #35 ) ;
#222 = CONTEXT_DEPENDENT_SHAPE_REPRESENTATION ( #165, #315 ) ;
#223 = EDGE_LOOP ( 'NONE', ( #336, #87, #180, #290 ) ) ;
#224 = EDGE_CURVE ( 'NONE', #68, #103, #362, .T. ) ;
#225 = EDGE_LOOP ( 'NONE', ( #293, #27, #152, #61 ) ) ;
#226 = CC_DESIGN_APPROVAL ( #96, ( #256 ) ) ;
#227 = MANIFOLD_SOLID_BREP ( 'Boss-Extrude-rengas', #111 ) ;
#228 = SHAPE_DEFINITION_REPRESENTATION ( #355, #131 ) ;
#229 = CC_DESIGN_APPROVAL ( #364, ( #273 ) ) ;
#230 = CARTESIAN_POINT ( 'NONE',  ( 5.786456125971244586E-14, 0.0000000000000000000, 472.5000000000000568 ) ) ;
#231 = CARTESIAN_POINT ( 'NONE',  ( 0.0000000000000000000, 35.00000000000000000, 0.0000000000000000000 ) ) ;
#232 = COORDINATED_UNIVERSAL_TIME_OFFSET ( 2, 0, .AHEAD. ) ;
#233 = UNCERTAINTY_MEASURE_WITH_UNIT (LENGTH_MEASURE( 1.000000000000000082E-05 ), #279, 'distance_accuracy_value', 'NONE');
#234 = CARTESIAN_POINT ( 'NONE',  ( 0.0000000000000000000, 35.00000000000000000, 0.0000000000000000000 ) ) ;
#235 = CARTESIAN_POINT ( 'NONE',  ( 0.0000000000000000000, 35.00000000000000000, -472.5000000000000568 ) ) ;
#236 = PERSON_AND_ORGANIZATION ( #197, #35 ) ;
#237 = CIRCLE ( 'NONE', #282, 400.0000000000000000 ) ;
#238 = ORIENTED_EDGE ( 'NONE', *, *, #341, .T. ) ;
#239 = PERSON_AND_ORGANIZATION ( #197, #35 ) ;
#240 = PLANE ( 'NONE',  #33 ) ;
#241 = PRODUCT_RELATED_PRODUCT_CATEGORY ( 'detail', '', ( #312 ) ) ;
#242 = APPROVAL_STATUS ( 'not_yet_approved' ) ;
#243 = CYLINDRICAL_SURFACE ( 'NONE', #246, 472.5000000000000568 ) ;
#244 = PERSON_AND_ORGANIZATION ( #197, #35 ) ;
#245 = SECURITY_CLASSIFICATION ( '', '', #155 ) ;
#246 = AXIS2_PLACEMENT_3D ( 'NONE', #75, #277, #84 ) ;
#247 = APPROVAL_PERSON_ORGANIZATION ( #221, #96, #40 ) ;
#248 = FACE_BOUND ( 'NONE', #31, .T. ) ;
#249 = DIRECTION ( 'NONE',  ( 0.0000000000000000000, 0.0000000000000000000, 1.000000000000000000 ) ) ;
#250 = AXIS2_PLACEMENT_3D ( 'NONE', #231, #154, #316 ) ;
#251 = AXIS2_PLACEMENT_3D ( 'NONE', #34, #297, #198 ) ;
#252 = APPROVAL ( #242, 'UNSPECIFIED' ) ;
#253 =( NAMED_UNIT ( * ) PLANE_ANGLE_UNIT ( ) SI_UNIT ( $, .RADIAN. ) );
#254 = DIRECTION ( 'NONE',  ( 0.0000000000000000000, 0.0000000000000000000, 1.000000000000000000 ) ) ;
#255 = SECURITY_CLASSIFICATION ( '', '', #346 ) ;
#256 = PRODUCT_DEFINITION ( 'UNKNOWN', '', #273, #324 ) ;
#257 = CALENDAR_DATE ( 2020, 16, 3 ) ;
#258 = APPROVAL ( #32, 'UNKNOWN' ) ;
#259 = PERSON_AND_ORGANIZATION_ROLE ( 'creator' ) ;
#260 = CARTESIAN_POINT ( 'NONE',  ( 0.0000000000000000000, 35.00000000000000000, 0.0000000000000000000 ) ) ;
#261 = ORIENTED_EDGE ( 'NONE', *, *, #134, .F. ) ;
#262 = APPROVAL ( #181, 'UNSPECIFIED' ) ;
#263 = CALENDAR_DATE ( 2020, 16, 3 ) ;
#264 = EDGE_LOOP ( 'NONE', ( #120, #70, #325, #261 ) ) ;
#265 = FACE_OUTER_BOUND ( 'NONE', #223, .T. ) ;
#266 = PERSON_AND_ORGANIZATION_ROLE ( 'creator' ) ;
#267 = VECTOR ( 'NONE', #187, 1000.000000000000000 ) ;
#268 = ORIENTED_EDGE ( 'NONE', *, *, #224, .F. ) ;
#269 = COORDINATED_UNIVERSAL_TIME_OFFSET ( 2, 0, .AHEAD. ) ;
#270 = CALENDAR_DATE ( 2020, 16, 3 ) ;
#271 =( NAMED_UNIT ( * ) SI_UNIT ( $, .STERADIAN. ) SOLID_ANGLE_UNIT ( ) );
#272 = LOCAL_TIME ( 8, 39, 44.00000000000000000, #46 ) ;
#273 = PRODUCT_DEFINITION_FORMATION_WITH_SPECIFIED_SOURCE ( 'ANY', '', #312, .NOT_KNOWN. ) ;
#274 = DIRECTION ( 'NONE',  ( 0.0000000000000000000, 0.0000000000000000000, 1.000000000000000000 ) ) ;
#275 = EDGE_CURVE ( 'NONE', #100, #116, #212, .T. ) ;
#276 = CC_DESIGN_APPROVAL ( #15, ( #343 ) ) ;
#277 = DIRECTION ( 'NONE',  ( -0.0000000000000000000, -1.000000000000000000, -0.0000000000000000000 ) ) ;
#278 = CARTESIAN_POINT ( 'NONE',  ( 0.0000000000000000000, 0.0000000000000000000, 0.0000000000000000000 ) ) ;
#279 =( LENGTH_UNIT ( ) NAMED_UNIT ( * ) SI_UNIT ( .MILLI., .METRE. ) );
#280 = DIRECTION ( 'NONE',  ( 1.000000000000000000, 0.0000000000000000000, 0.0000000000000000000 ) ) ;
#281 = AXIS2_PLACEMENT_3D ( 'NONE', #260, #347, #94 ) ;
#282 = AXIS2_PLACEMENT_3D ( 'NONE', #209, #182, #188 ) ;
#283 = PERSON_AND_ORGANIZATION ( #197, #35 ) ;
#284 = CC_DESIGN_PERSON_AND_ORGANIZATION_ASSIGNMENT ( #236, #9, ( #245 ) ) ;
#285 = PERSON ( 'NAUO-PER1', 'UNSPECIFIED', 'UNSPECIFIED', ('UNSPECIFIED'), ('UNSPECIFIED'), ('UNSPECIFIED') ) ;
#286 = ORIENTED_EDGE ( 'NONE', *, *, #275, .F. ) ;
#287 = PERSON_AND_ORGANIZATION ( #197, #35 ) ;
#288 = CARTESIAN_POINT ( 'NONE',  ( 0.0000000000000000000, 35.00000000000000000, -400.0000000000000000 ) ) ;
#289 = SECURITY_CLASSIFICATION_LEVEL ( 'unclassified' ) ;
#290 = ORIENTED_EDGE ( 'NONE', *, *, #332, .F. ) ;
#291 = PERSON_AND_ORGANIZATION ( #197, #35 ) ;
#292 = AXIS2_PLACEMENT_3D ( 'NONE', #162, #299, #109 ) ;
#293 = ORIENTED_EDGE ( 'NONE', *, *, #304, .F. ) ;
#294 = AXIS2_PLACEMENT_3D ( 'NONE', #43, #8, #156 ) ;
#295 = DIRECTION ( 'NONE',  ( 0.0000000000000000000, 0.0000000000000000000, 1.000000000000000000 ) ) ;
#296 = DATE_AND_TIME ( #210, #142 ) ;
#297 = DIRECTION ( 'NONE',  ( 0.0000000000000000000, 1.000000000000000000, 0.0000000000000000000 ) ) ;
#298 = APPROVAL_ROLE ( '' ) ;
#299 = DIRECTION ( 'NONE',  ( 0.0000000000000000000, 0.0000000000000000000, 1.000000000000000000 ) ) ;
#300 = COORDINATED_UNIVERSAL_TIME_OFFSET ( 2, 0, .AHEAD. ) ;
#301 = CC_DESIGN_SECURITY_CLASSIFICATION ( #255, ( #373 ) ) ;
#302 = FACE_OUTER_BOUND ( 'NONE', #141, .T. ) ;
#303 = CARTESIAN_POINT ( 'NONE',  ( 4.898587196589412868E-14, 0.0000000000000000000, 400.0000000000000000 ) ) ;
#304 = EDGE_CURVE ( 'NONE', #103, #344, #135, .T. ) ;
#305 = DIRECTION ( 'NONE',  ( -0.0000000000000000000, -1.000000000000000000, -0.0000000000000000000 ) ) ;
#306 = DATE_TIME_ROLE ( 'classification_date' ) ;
#307 = ADVANCED_FACE ( 'NONE', ( #49, #248 ), #240, .T. ) ;
#308 = APPROVAL_DATE_TIME ( #366, #258 ) ;
#309 = AXIS2_PLACEMENT_3D ( 'NONE', #159, #85, #191 ) ;
#310 = CIRCLE ( 'NONE', #251, 400.0000000000000000 ) ;
#311 = ADVANCED_FACE ( 'NONE', ( #45, #357 ), #218, .F. ) ;
#312 = PRODUCT ( 'Rudus 6780035 Korotusrengas kaukolämpö 800x35', 'Rudus 6780035 Korotusrengas kaukolämpö 800x35', '', ( #52 ) ) ;
#313 = AXIS2_PLACEMENT_3D ( 'NONE', #77, #11, #136 ) ;
#314 = PERSON_AND_ORGANIZATION ( #197, #35 ) ;
#315 = PRODUCT_DEFINITION_SHAPE ( 'NONE', 'NONE',  #373 ) ;
#316 = DIRECTION ( 'NONE',  ( 0.0000000000000000000, 0.0000000000000000000, -1.000000000000000000 ) ) ;
#317 = ADVANCED_FACE ( 'NONE', ( #359 ), #216, .F. ) ;
#318 = DIRECTION ( 'NONE',  ( 0.0000000000000000000, 0.0000000000000000000, 1.000000000000000000 ) ) ;
#319 = CALENDAR_DATE ( 2020, 16, 3 ) ;
#320 = DIRECTION ( 'NONE',  ( 0.0000000000000000000, 0.0000000000000000000, -1.000000000000000000 ) ) ;
#321 = AXIS2_PLACEMENT_3D ( 'NONE', #278, #254, #280 ) ;
#322 = ORIENTED_EDGE ( 'NONE', *, *, #39, .T. ) ;
#323 = PERSON_AND_ORGANIZATION_ROLE ( 'creator' ) ;
#324 = DESIGN_CONTEXT ( 'detailed design', #200, 'design' ) ;
#325 = ORIENTED_EDGE ( 'NONE', *, *, #369, .F. ) ;
#326 = PERSON_AND_ORGANIZATION ( #197, #35 ) ;
#327 = APPLICATION_PROTOCOL_DEFINITION ( 'international standard', 'config_control_design', 1994, #102 ) ;
#328 = CARTESIAN_POINT ( 'NONE',  ( 0.0000000000000000000, 35.00000000000000000, 0.0000000000000000000 ) ) ;
#329 = LOCAL_TIME ( 8, 39, 44.00000000000000000, #172 ) ;
#330 = PERSON_AND_ORGANIZATION ( #197, #35 ) ;
#331 = CC_DESIGN_APPROVAL ( #258, ( #255 ) ) ;
#332 = EDGE_CURVE ( 'NONE', #207, #166, #112, .T. ) ;
#333 =( LENGTH_UNIT ( ) NAMED_UNIT ( * ) SI_UNIT ( .MILLI., .METRE. ) );
#334 = CARTESIAN_POINT ( 'NONE',  ( 0.0000000000000000000, 35.00000000000000000, -472.5000000000000568 ) ) ;
#335 = APPROVAL_STATUS ( 'not_yet_approved' ) ;
#336 = ORIENTED_EDGE ( 'NONE', *, *, #341, .F. ) ;
#337 = ORIENTED_EDGE ( 'NONE', *, *, #147, .F. ) ;
#338 =( GEOMETRIC_REPRESENTATION_CONTEXT ( 3 ) GLOBAL_UNCERTAINTY_ASSIGNED_CONTEXT ( ( #233 ) ) GLOBAL_UNIT_ASSIGNED_CONTEXT ( ( #279, #21, #339 ) ) REPRESENTATION_CONTEXT ( 'NONE', 'WORKASPACE' ) );
#339 =( NAMED_UNIT ( * ) SI_UNIT ( $, .STERADIAN. ) SOLID_ANGLE_UNIT ( ) );
#340 = EDGE_LOOP ( 'NONE', ( #146, #322 ) ) ;
#341 = EDGE_CURVE ( 'NONE', #100, #207, #345, .T. ) ;
#342 = ITEM_DEFINED_TRANSFORMATION ( 'NONE', 'NONE', #309,  #292 ) ;
#343 = PRODUCT_DEFINITION_FORMATION_WITH_SPECIFIED_SOURCE ( 'ANY', '', #370, .NOT_KNOWN. ) ;
#344 = VERTEX_POINT ( 'NONE', #303 ) ;
#345 = CIRCLE ( 'NONE', #54, 472.5000000000000568 ) ;
#346 = SECURITY_CLASSIFICATION_LEVEL ( 'unclassified' ) ;
#347 = DIRECTION ( 'NONE',  ( 0.0000000000000000000, 1.000000000000000000, 0.0000000000000000000 ) ) ;
#348 = APPROVAL_STATUS ( 'not_yet_approved' ) ;
#349 = CYLINDRICAL_SURFACE ( 'NONE', #250, 400.0000000000000000 ) ;
#350 = COORDINATED_UNIVERSAL_TIME_OFFSET ( 2, 0, .AHEAD. ) ;
#351 = CARTESIAN_POINT ( 'NONE',  ( 0.0000000000000000000, 35.00000000000000000, 0.0000000000000000000 ) ) ;
#352 = CALENDAR_DATE ( 2020, 16, 3 ) ;
#353 = ADVANCED_FACE ( 'NONE', ( #302 ), #243, .T. ) ;
#354 = ORIENTED_EDGE ( 'NONE', *, *, #67, .T. ) ;
#355 = PRODUCT_DEFINITION_SHAPE ( 'NONE', 'NONE',  #204 ) ;
#356 = APPROVAL_DATE_TIME ( #296, #252 ) ;
#357 = FACE_BOUND ( 'NONE', #340, .T. ) ;
#358 = DATE_AND_TIME ( #101, #69 ) ;
#359 = FACE_OUTER_BOUND ( 'NONE', #225, .T. ) ;
#360 = CALENDAR_DATE ( 2020, 16, 3 ) ;
#361 = CC_DESIGN_PERSON_AND_ORGANIZATION_ASSIGNMENT ( #372, #144, ( #127 ) ) ;
#362 = CIRCLE ( 'NONE', #60, 400.0000000000000000 ) ;
#363 = DIRECTION ( 'NONE',  ( 0.0000000000000000000, 1.000000000000000000, 0.0000000000000000000 ) ) ;
#364 = APPROVAL ( #213, 'UNSPECIFIED' ) ;
#365 = CARTESIAN_POINT ( 'NONE',  ( 0.0000000000000000000, 35.00000000000000000, 0.0000000000000000000 ) ) ;
#366 = DATE_AND_TIME ( #263, #1 ) ;
#367 = CC_DESIGN_DATE_AND_TIME_ASSIGNMENT ( #66, #306, ( #255 ) ) ;
#368 = VECTOR ( 'NONE', #19, 1000.000000000000000 ) ;
#369 = EDGE_CURVE ( 'NONE', #205, #344, #237, .T. ) ;
#370 = PRODUCT ( 'kaivo-osa-korotusrengas_Kaukol„mp”', 'kaivo-osa-korotusrengas_Kaukol„mp”', '', ( #16 ) ) ;
#371 = DATE_AND_TIME ( #121, #220 ) ;
#372 = PERSON_AND_ORGANIZATION ( #197, #35 ) ;
#373 = NEXT_ASSEMBLY_USAGE_OCCURRENCE ( 'NAUO1', ' ', ' ', #256, #204, $ ) ;
ENDSEC;
END-ISO-10303-21;
