ISO-10303-21;
HEADER;
FILE_DESCRIPTION (( 'STEP AP203' ),
    '1' );
FILE_NAME ('Rudus 6764200 Korotusrengas kaukolämpö 640x200.step',
    '2020-03-16T06:38:11',
    ( '' ),
    ( '' ),
    'SwSTEP 2.0',
    'SolidWorks 2019',
    '' );
FILE_SCHEMA (( 'CONFIG_CONTROL_DESIGN' ));
ENDSEC;

DATA;
#1 = ORIENTED_EDGE ( 'NONE', *, *, #168, .F. ) ;
#2 = CIRCLE ( 'NONE', #72, 424.9999999999999432 ) ;
#3 = EDGE_CURVE ( 'NONE', #148, #74, #132, .T. ) ;
#4 = CC_DESIGN_PERSON_AND_ORGANIZATION_ASSIGNMENT ( #318, #46, ( #108 ) ) ;
#5 = ORIENTED_EDGE ( 'NONE', *, *, #333, .F. ) ;
#6 = CC_DESIGN_APPROVAL ( #10, ( #130 ) ) ;
#7 = CARTESIAN_POINT ( 'NONE',  ( 0.0000000000000000000, 200.0000000000000000, 0.0000000000000000000 ) ) ;
#8 = ORIENTED_EDGE ( 'NONE', *, *, #181, .T. ) ;
#9 = CARTESIAN_POINT ( 'NONE',  ( 0.0000000000000000000, 200.0000000000000000, 0.0000000000000000000 ) ) ;
#10 = APPROVAL ( #100, 'UNSPECIFIED' ) ;
#11 = DIRECTION ( 'NONE',  ( 1.000000000000000000, 0.0000000000000000000, 0.0000000000000000000 ) ) ;
#12 = DIRECTION ( 'NONE',  ( -0.0000000000000000000, -1.000000000000000000, -0.0000000000000000000 ) ) ;
#13 = DIRECTION ( 'NONE',  ( 0.0000000000000000000, 1.000000000000000000, 0.0000000000000000000 ) ) ;
#14 = VECTOR ( 'NONE', #214, 1000.000000000000000 ) ;
#15 = PERSON_AND_ORGANIZATION ( #94, #115 ) ;
#16 = FACE_BOUND ( 'NONE', #207, .T. ) ;
#17 = DATE_AND_TIME ( #162, #156 ) ;
#18 =( NAMED_UNIT ( * ) PLANE_ANGLE_UNIT ( ) SI_UNIT ( $, .RADIAN. ) );
#19 = APPROVAL ( #253, 'UNKNOWN' ) ;
#20 = CARTESIAN_POINT ( 'NONE',  ( 0.0000000000000000000, 0.0000000000000000000, -319.9999999999999432 ) ) ;
#21 = SECURITY_CLASSIFICATION_LEVEL ( 'unclassified' ) ;
#22 = CARTESIAN_POINT ( 'NONE',  ( 0.0000000000000000000, 200.0000000000000000, 0.0000000000000000000 ) ) ;
#23 = PERSON_AND_ORGANIZATION_ROLE ( 'creator' ) ;
#24 = CALENDAR_DATE ( 2020, 16, 3 ) ;
#25 = ADVANCED_FACE ( 'NONE', ( #215 ), #153, .T. ) ;
#26 = APPLICATION_PROTOCOL_DEFINITION ( 'international standard', 'config_control_design', 1994, #233 ) ;
#27 = CC_DESIGN_PERSON_AND_ORGANIZATION_ASSIGNMENT ( #239, #287, ( #266 ) ) ;
#28 = APPROVAL_STATUS ( 'not_yet_approved' ) ;
#29 = LOCAL_TIME ( 8, 38, 11.00000000000000000, #78 ) ;
#30 = PERSON_AND_ORGANIZATION ( #94, #115 ) ;
#31 = EDGE_CURVE ( 'NONE', #76, #148, #357, .T. ) ;
#32 = ORIENTED_EDGE ( 'NONE', *, *, #44, .T. ) ;
#33 = CYLINDRICAL_SURFACE ( 'NONE', #255, 319.9999999999999432 ) ;
#34 = CARTESIAN_POINT ( 'NONE',  ( 3.918869757271529790E-14, 200.0000000000000000, 319.9999999999999432 ) ) ;
#35 = APPROVAL_DATE_TIME ( #17, #170 ) ;
#36 = AXIS2_PLACEMENT_3D ( 'NONE', #138, #178, #73 ) ;
#37 = CALENDAR_DATE ( 2020, 16, 3 ) ;
#38 = DIRECTION ( 'NONE',  ( -0.0000000000000000000, -1.000000000000000000, -0.0000000000000000000 ) ) ;
#39 = CALENDAR_DATE ( 2020, 16, 3 ) ;
#40 = CC_DESIGN_APPROVAL ( #80, ( #68 ) ) ;
#41 = PERSON_AND_ORGANIZATION ( #94, #115 ) ;
#42 = VECTOR ( 'NONE', #117, 1000.000000000000000 ) ;
#43 = APPROVAL_DATE_TIME ( #259, #358 ) ;
#44 = EDGE_CURVE ( 'NONE', #204, #270, #137, .T. ) ;
#45 = ORIENTED_EDGE ( 'NONE', *, *, #31, .F. ) ;
#46 = PERSON_AND_ORGANIZATION_ROLE ( 'design_owner' ) ;
#47 = DATE_TIME_ROLE ( 'creation_date' ) ;
#48 = CIRCLE ( 'NONE', #217, 424.9999999999999432 ) ;
#49 = AXIS2_PLACEMENT_3D ( 'NONE', #160, #124, #83 ) ;
#50 = CARTESIAN_POINT ( 'NONE',  ( 0.0000000000000000000, 0.0000000000000000000, 0.0000000000000000000 ) ) ;
#51 = ORIENTED_EDGE ( 'NONE', *, *, #3, .F. ) ;
#52 = CC_DESIGN_DATE_AND_TIME_ASSIGNMENT ( #167, #69, ( #121 ) ) ;
#53 = DIRECTION ( 'NONE',  ( 0.0000000000000000000, 0.0000000000000000000, 1.000000000000000000 ) ) ;
#54 = CIRCLE ( 'NONE', #283, 319.9999999999999432 ) ;
#55 = DIRECTION ( 'NONE',  ( 0.0000000000000000000, -0.0000000000000000000, 1.000000000000000000 ) ) ;
#56 = ADVANCED_FACE ( 'NONE', ( #120 ), #218, .T. ) ;
#57 = PERSON_AND_ORGANIZATION_ROLE ( 'creator' ) ;
#58 = ITEM_DEFINED_TRANSFORMATION ( 'NONE', 'NONE', #49,  #372 ) ;
#59 = PERSON_AND_ORGANIZATION_ROLE ( 'classification_officer' ) ;
#60 = LINE ( 'NONE', #193, #246 ) ;
#61 = DIRECTION ( 'NONE',  ( 0.0000000000000000000, 1.000000000000000000, 0.0000000000000000000 ) ) ;
#62 = PERSON_AND_ORGANIZATION ( #94, #115 ) ;
#63 = PERSON_AND_ORGANIZATION_ROLE ( 'classification_officer' ) ;
#64 = MANIFOLD_SOLID_BREP ( 'Boss-Extrude-rengas', #225 ) ;
#65 = ORIENTED_EDGE ( 'NONE', *, *, #197, .F. ) ;
#66 = CARTESIAN_POINT ( 'NONE',  ( 5.204748896376250107E-14, 200.0000000000000000, 424.9999999999999432 ) ) ;
#67 = APPROVAL_STATUS ( 'not_yet_approved' ) ;
#68 = PRODUCT_DEFINITION_FORMATION_WITH_SPECIFIED_SOURCE ( 'ANY', '', #102, .NOT_KNOWN. ) ;
#69 = DATE_TIME_ROLE ( 'classification_date' ) ;
#70 = DESIGN_CONTEXT ( 'detailed design', #175, 'design' ) ;
#71 = COORDINATED_UNIVERSAL_TIME_OFFSET ( 2, 0, .AHEAD. ) ;
#72 = AXIS2_PLACEMENT_3D ( 'NONE', #189, #329, #336 ) ;
#73 = DIRECTION ( 'NONE',  ( 1.000000000000000000, 0.0000000000000000000, 0.0000000000000000000 ) ) ;
#74 = VERTEX_POINT ( 'NONE', #79 ) ;
#75 = APPROVAL_ROLE ( '' ) ;
#76 = VERTEX_POINT ( 'NONE', #184 ) ;
#77 = LOCAL_TIME ( 8, 38, 11.00000000000000000, #142 ) ;
#78 = COORDINATED_UNIVERSAL_TIME_OFFSET ( 2, 0, .AHEAD. ) ;
#79 = CARTESIAN_POINT ( 'NONE',  ( 3.918869757271529790E-14, 0.0000000000000000000, 319.9999999999999432 ) ) ;
#80 = APPROVAL ( #353, 'UNSPECIFIED' ) ;
#81 = LINE ( 'NONE', #34, #14 ) ;
#82 = UNCERTAINTY_MEASURE_WITH_UNIT (LENGTH_MEASURE( 1.000000000000000082E-05 ), #299, 'distance_accuracy_value', 'NONE');
#83 = DIRECTION ( 'NONE',  ( -1.000000000000000000, -5.551115123125782702E-17, 2.775557561562891351E-16 ) ) ;
#84 = ADVANCED_FACE ( 'NONE', ( #297 ), #33, .F. ) ;
#85 = LOCAL_TIME ( 8, 38, 11.00000000000000000, #71 ) ;
#86 = CARTESIAN_POINT ( 'NONE',  ( 0.0000000000000000000, 200.0000000000000000, 0.0000000000000000000 ) ) ;
#87 = PLANE ( 'NONE',  #368 ) ;
#88 = AXIS2_PLACEMENT_3D ( 'NONE', #248, #251, #300 ) ;
#89 = APPROVAL_DATE_TIME ( #326, #325 ) ;
#90 =( NAMED_UNIT ( * ) SI_UNIT ( $, .STERADIAN. ) SOLID_ANGLE_UNIT ( ) );
#91 = CC_DESIGN_PERSON_AND_ORGANIZATION_ASSIGNMENT ( #62, #196, ( #130 ) ) ;
#92 = DESIGN_CONTEXT ( 'detailed design', #136, 'design' ) ;
#93 = CALENDAR_DATE ( 2020, 16, 3 ) ;
#94 = PERSON ( 'UNSPECIFIED', 'UNSPECIFIED', 'UNSPECIFIED', ('UNSPECIFIED'), ('UNSPECIFIED'), ('UNSPECIFIED') ) ;
#95 = COORDINATED_UNIVERSAL_TIME_OFFSET ( 2, 0, .AHEAD. ) ;
#96 = COORDINATED_UNIVERSAL_TIME_OFFSET ( 2, 0, .AHEAD. ) ;
#97 = FACE_OUTER_BOUND ( 'NONE', #179, .T. ) ;
#98 = LOCAL_TIME ( 8, 38, 11.00000000000000000, #128 ) ;
#99 = DIRECTION ( 'NONE',  ( -0.0000000000000000000, -1.000000000000000000, -0.0000000000000000000 ) ) ;
#100 = APPROVAL_STATUS ( 'not_yet_approved' ) ;
#101 = CALENDAR_DATE ( 2020, 16, 3 ) ;
#102 = PRODUCT ( 'Rudus 6764200 Korotusrengas kaukolämpö 640x200', 'Rudus 6764200 Korotusrengas kaukolämpö 640x200', '', ( #264 ) ) ;
#103 = PLANE ( 'NONE',  #265 ) ;
#104 = DATE_AND_TIME ( #370, #205 ) ;
#105 = SECURITY_CLASSIFICATION ( '', '', #367 ) ;
#106 = CONTEXT_DEPENDENT_SHAPE_REPRESENTATION ( #158, #317 ) ;
#107 =( GEOMETRIC_REPRESENTATION_CONTEXT ( 3 ) GLOBAL_UNCERTAINTY_ASSIGNED_CONTEXT ( ( #82 ) ) GLOBAL_UNIT_ASSIGNED_CONTEXT ( ( #299, #286, #295 ) ) REPRESENTATION_CONTEXT ( 'NONE', 'WORKASPACE' ) );
#108 = PRODUCT ( 'kaivo-osa-korotusrengas_Kaukol„mp”', 'kaivo-osa-korotusrengas_Kaukol„mp”', '', ( #371 ) ) ;
#109 = CIRCLE ( 'NONE', #88, 424.9999999999999432 ) ;
#110 = EDGE_LOOP ( 'NONE', ( #135, #145, #322, #262 ) ) ;
#111 = DIRECTION ( 'NONE',  ( 0.0000000000000000000, 0.0000000000000000000, 1.000000000000000000 ) ) ;
#112 = DATE_AND_TIME ( #288, #85 ) ;
#113 = ORIENTED_EDGE ( 'NONE', *, *, #154, .T. ) ;
#114 = EDGE_LOOP ( 'NONE', ( #65, #240, #208, #32 ) ) ;
#115 = ORGANIZATION ( 'UNSPECIFIED', 'UNSPECIFIED', '' ) ;
#116 = DIRECTION ( 'NONE',  ( 0.0000000000000000000, 0.0000000000000000000, -1.000000000000000000 ) ) ;
#117 = DIRECTION ( 'NONE',  ( -0.0000000000000000000, -1.000000000000000000, -0.0000000000000000000 ) ) ;
#118 = ADVANCED_FACE ( 'NONE', ( #97, #16 ), #87, .F. ) ;
#119 = CARTESIAN_POINT ( 'NONE',  ( 0.0000000000000000000, 200.0000000000000000, -424.9999999999999432 ) ) ;
#120 = FACE_OUTER_BOUND ( 'NONE', #110, .T. ) ;
#121 = SECURITY_CLASSIFICATION ( '', '', #21 ) ;
#122 = PRODUCT_DEFINITION_FORMATION_WITH_SPECIFIED_SOURCE ( 'ANY', '', #108, .NOT_KNOWN. ) ;
#123 = CALENDAR_DATE ( 2020, 16, 3 ) ;
#124 = DIRECTION ( 'NONE',  ( -5.551115123125781470E-17, 1.000000000000000000, 9.244463733058732095E-33 ) ) ;
#125 = CARTESIAN_POINT ( 'NONE',  ( 0.0000000000000000000, 200.0000000000000000, 0.0000000000000000000 ) ) ;
#126 = FACE_BOUND ( 'NONE', #257, .T. ) ;
#127 = CC_DESIGN_DATE_AND_TIME_ASSIGNMENT ( #330, #190, ( #130 ) ) ;
#128 = COORDINATED_UNIVERSAL_TIME_OFFSET ( 2, 0, .AHEAD. ) ;
#129 = ADVANCED_BREP_SHAPE_REPRESENTATION ( '', ( #64, #372 ), #157 ) ;
#130 = SECURITY_CLASSIFICATION ( '', '', #221 ) ;
#131 = FACE_OUTER_BOUND ( 'NONE', #150, .T. ) ;
#132 = CIRCLE ( 'NONE', #191, 319.9999999999999432 ) ;
#133 = DATE_AND_TIME ( #24, #312 ) ;
#134 = CC_DESIGN_DATE_AND_TIME_ASSIGNMENT ( #331, #365, ( #307 ) ) ;
#135 = ORIENTED_EDGE ( 'NONE', *, *, #154, .F. ) ;
#136 = APPLICATION_CONTEXT ( 'configuration controlled 3d designs of mechanical parts and assemblies' ) ;
#137 = CIRCLE ( 'NONE', #334, 424.9999999999999432 ) ;
#138 = CARTESIAN_POINT ( 'NONE',  ( 0.0000000000000000000, 0.0000000000000000000, 0.0000000000000000000 ) ) ;
#139 = PERSON_AND_ORGANIZATION ( #94, #115 ) ;
#140 = ORIENTED_EDGE ( 'NONE', *, *, #269, .T. ) ;
#141 = CARTESIAN_POINT ( 'NONE',  ( 0.0000000000000000000, 0.0000000000000000000, 0.0000000000000000000 ) ) ;
#142 = COORDINATED_UNIVERSAL_TIME_OFFSET ( 2, 0, .AHEAD. ) ;
#143 = CC_DESIGN_APPROVAL ( #213, ( #266 ) ) ;
#144 = AXIS2_PLACEMENT_3D ( 'NONE', #22, #229, #195 ) ;
#145 = ORIENTED_EDGE ( 'NONE', *, *, #197, .T. ) ;
#146 = APPROVAL_STATUS ( 'not_yet_approved' ) ;
#147 = EDGE_LOOP ( 'NONE', ( #5, #140, #296, #267 ) ) ;
#148 = VERTEX_POINT ( 'NONE', #20 ) ;
#149 = DIRECTION ( 'NONE',  ( 1.000000000000000000, 0.0000000000000000000, 0.0000000000000000000 ) ) ;
#150 = EDGE_LOOP ( 'NONE', ( #8, #113 ) ) ;
#151 = CC_DESIGN_SECURITY_CLASSIFICATION ( #121, ( #373 ) ) ;
#152 = AXIS2_PLACEMENT_3D ( 'NONE', #7, #271, #116 ) ;
#153 = CYLINDRICAL_SURFACE ( 'NONE', #237, 424.9999999999999432 ) ;
#154 = EDGE_CURVE ( 'NONE', #198, #352, #2, .T. ) ;
#155 = CC_DESIGN_PERSON_AND_ORGANIZATION_ASSIGNMENT ( #171, #59, ( #121 ) ) ;
#156 = LOCAL_TIME ( 8, 38, 11.00000000000000000, #95 ) ;
#157 =( GEOMETRIC_REPRESENTATION_CONTEXT ( 3 ) GLOBAL_UNCERTAINTY_ASSIGNED_CONTEXT ( ( #263 ) ) GLOBAL_UNIT_ASSIGNED_CONTEXT ( ( #219, #18, #90 ) ) REPRESENTATION_CONTEXT ( 'NONE', 'WORKASPACE' ) );
#158 =( REPRESENTATION_RELATIONSHIP ('NONE','NONE', #234, #313 ) REPRESENTATION_RELATIONSHIP_WITH_TRANSFORMATION ( #58 )SHAPE_REPRESENTATION_RELATIONSHIP( ) );
#159 = APPROVAL_ROLE ( '' ) ;
#160 = CARTESIAN_POINT ( 'NONE',  ( 0.0000000000000000000, -161.7731247645711790, 0.0000000000000000000 ) ) ;
#161 = LINE ( 'NONE', #227, #361 ) ;
#162 = CALENDAR_DATE ( 2020, 16, 3 ) ;
#163 = APPROVAL_DATE_TIME ( #104, #19 ) ;
#164 = COORDINATED_UNIVERSAL_TIME_OFFSET ( 2, 0, .AHEAD. ) ;
#165 = CARTESIAN_POINT ( 'NONE',  ( 0.0000000000000000000, 0.0000000000000000000, -424.9999999999999432 ) ) ;
#166 = PERSON_AND_ORGANIZATION ( #94, #115 ) ;
#167 = DATE_AND_TIME ( #37, #302 ) ;
#168 = EDGE_CURVE ( 'NONE', #76, #319, #54, .T. ) ;
#169 = PERSON_AND_ORGANIZATION ( #94, #115 ) ;
#170 = APPROVAL ( #228, 'UNSPECIFIED' ) ;
#171 = PERSON_AND_ORGANIZATION ( #305, #174 ) ;
#172 = SHAPE_DEFINITION_REPRESENTATION ( #345, #234 ) ;
#173 = EDGE_CURVE ( 'NONE', #270, #204, #109, .T. ) ;
#174 = ORGANIZATION ( 'NAUO-ORG1', 'UNSPECIFIED', 'UNSPECIFIED' ) ;
#175 = APPLICATION_CONTEXT ( 'configuration controlled 3d designs of mechanical parts and assemblies' ) ;
#176 = PRODUCT_RELATED_PRODUCT_CATEGORY ( 'detail', '', ( #108 ) ) ;
#177 = PERSON_AND_ORGANIZATION_ROLE ( 'creator' ) ;
#178 = DIRECTION ( 'NONE',  ( 0.0000000000000000000, 0.0000000000000000000, 1.000000000000000000 ) ) ;
#179 = EDGE_LOOP ( 'NONE', ( #344, #350 ) ) ;
#180 = ORIENTED_EDGE ( 'NONE', *, *, #168, .T. ) ;
#181 = EDGE_CURVE ( 'NONE', #352, #198, #48, .T. ) ;
#182 = APPROVAL_ROLE ( '' ) ;
#183 = DIRECTION ( 'NONE',  ( 0.0000000000000000000, 0.0000000000000000000, 1.000000000000000000 ) ) ;
#184 = CARTESIAN_POINT ( 'NONE',  ( 0.0000000000000000000, 200.0000000000000000, -319.9999999999999432 ) ) ;
#185 = CC_DESIGN_SECURITY_CLASSIFICATION ( #130, ( #122 ) ) ;
#186 = CARTESIAN_POINT ( 'NONE',  ( 0.0000000000000000000, 0.0000000000000000000, 0.0000000000000000000 ) ) ;
#187 = CC_DESIGN_DATE_AND_TIME_ASSIGNMENT ( #320, #47, ( #266 ) ) ;
#188 = DIRECTION ( 'NONE',  ( 0.0000000000000000000, 1.000000000000000000, 0.0000000000000000000 ) ) ;
#189 = CARTESIAN_POINT ( 'NONE',  ( 0.0000000000000000000, 200.0000000000000000, 0.0000000000000000000 ) ) ;
#190 = DATE_TIME_ROLE ( 'classification_date' ) ;
#191 = AXIS2_PLACEMENT_3D ( 'NONE', #141, #355, #183 ) ;
#192 = PERSON_AND_ORGANIZATION_ROLE ( 'design_supplier' ) ;
#193 = CARTESIAN_POINT ( 'NONE',  ( 5.204748896376250107E-14, 200.0000000000000000, 424.9999999999999432 ) ) ;
#194 = APPLICATION_CONTEXT ( 'configuration controlled 3d designs of mechanical parts and assemblies' ) ;
#195 = DIRECTION ( 'NONE',  ( 0.0000000000000000000, 0.0000000000000000000, 1.000000000000000000 ) ) ;
#196 = PERSON_AND_ORGANIZATION_ROLE ( 'classification_officer' ) ;
#197 = EDGE_CURVE ( 'NONE', #198, #270, #60, .T. ) ;
#198 = VERTEX_POINT ( 'NONE', #66 ) ;
#199 = DIRECTION ( 'NONE',  ( -0.0000000000000000000, -1.000000000000000000, -0.0000000000000000000 ) ) ;
#200 = APPROVAL_ROLE ( '' ) ;
#201 = CC_DESIGN_APPROVAL ( #325, ( #307 ) ) ;
#202 = CALENDAR_DATE ( 2020, 16, 3 ) ;
#203 = ADVANCED_FACE ( 'NONE', ( #131, #126 ), #103, .T. ) ;
#204 = VERTEX_POINT ( 'NONE', #165 ) ;
#205 = LOCAL_TIME ( 8, 38, 11.00000000000000000, #346 ) ;
#206 = CALENDAR_DATE ( 2020, 16, 3 ) ;
#207 = EDGE_LOOP ( 'NONE', ( #316, #242 ) ) ;
#208 = ORIENTED_EDGE ( 'NONE', *, *, #298, .T. ) ;
#209 = PRODUCT_RELATED_PRODUCT_CATEGORY ( 'detail', '', ( #102 ) ) ;
#210 = CC_DESIGN_APPROVAL ( #19, ( #121 ) ) ;
#211 = CARTESIAN_POINT ( 'NONE',  ( 0.0000000000000000000, 200.0000000000000000, -319.9999999999999432 ) ) ;
#212 = DIRECTION ( 'NONE',  ( 0.0000000000000000000, 0.0000000000000000000, -1.000000000000000000 ) ) ;
#213 = APPROVAL ( #28, 'UNSPECIFIED' ) ;
#214 = DIRECTION ( 'NONE',  ( -0.0000000000000000000, -1.000000000000000000, -0.0000000000000000000 ) ) ;
#215 = FACE_OUTER_BOUND ( 'NONE', #114, .T. ) ;
#216 = APPROVAL_PERSON_ORGANIZATION ( #294, #80, #258 ) ;
#217 = AXIS2_PLACEMENT_3D ( 'NONE', #125, #363, #226 ) ;
#218 = CYLINDRICAL_SURFACE ( 'NONE', #152, 424.9999999999999432 ) ;
#219 =( LENGTH_UNIT ( ) NAMED_UNIT ( * ) SI_UNIT ( .MILLI., .METRE. ) );
#220 = DIRECTION ( 'NONE',  ( 0.0000000000000000000, 1.000000000000000000, 0.0000000000000000000 ) ) ;
#221 = SECURITY_CLASSIFICATION_LEVEL ( 'unclassified' ) ;
#222 = DIRECTION ( 'NONE',  ( 0.0000000000000000000, 0.0000000000000000000, -1.000000000000000000 ) ) ;
#223 = APPROVAL_ROLE ( '' ) ;
#224 = APPROVAL_PERSON_ORGANIZATION ( #171, #19, #311 ) ;
#225 = CLOSED_SHELL ( 'NONE', ( #277, #56, #203, #118, #25, #84 ) ) ;
#226 = DIRECTION ( 'NONE',  ( 0.0000000000000000000, 0.0000000000000000000, 1.000000000000000000 ) ) ;
#227 = CARTESIAN_POINT ( 'NONE',  ( 0.0000000000000000000, 200.0000000000000000, -424.9999999999999432 ) ) ;
#228 = APPROVAL_STATUS ( 'not_yet_approved' ) ;
#229 = DIRECTION ( 'NONE',  ( 0.0000000000000000000, 1.000000000000000000, 0.0000000000000000000 ) ) ;
#230 = CC_DESIGN_PERSON_AND_ORGANIZATION_ASSIGNMENT ( #166, #192, ( #122 ) ) ;
#231 = DATE_TIME_ROLE ( 'classification_date' ) ;
#232 = CIRCLE ( 'NONE', #275, 319.9999999999999432 ) ;
#233 = APPLICATION_CONTEXT ( 'configuration controlled 3d designs of mechanical parts and assemblies' ) ;
#234 = SHAPE_REPRESENTATION ( 'Rudus 6764200 Korotusrengas kaukolämpö 640x200', ( #36, #49 ), #107 ) ;
#235 = PERSON_AND_ORGANIZATION ( #94, #115 ) ;
#236 = PERSON_AND_ORGANIZATION_ROLE ( 'design_owner' ) ;
#237 = AXIS2_PLACEMENT_3D ( 'NONE', #86, #12, #212 ) ;
#238 = CARTESIAN_POINT ( 'NONE',  ( 0.0000000000000000000, 0.0000000000000000000, 0.0000000000000000000 ) ) ;
#239 = PERSON_AND_ORGANIZATION ( #94, #115 ) ;
#240 = ORIENTED_EDGE ( 'NONE', *, *, #181, .F. ) ;
#241 = COORDINATED_UNIVERSAL_TIME_OFFSET ( 2, 0, .AHEAD. ) ;
#242 = ORIENTED_EDGE ( 'NONE', *, *, #342, .T. ) ;
#243 = LOCAL_TIME ( 8, 38, 11.00000000000000000, #241 ) ;
#244 = CC_DESIGN_PERSON_AND_ORGANIZATION_ASSIGNMENT ( #41, #23, ( #68 ) ) ;
#245 = APPROVAL_PERSON_ORGANIZATION ( #235, #213, #75 ) ;
#246 = VECTOR ( 'NONE', #99, 1000.000000000000000 ) ;
#247 = CC_DESIGN_PERSON_AND_ORGANIZATION_ASSIGNMENT ( #338, #57, ( #122 ) ) ;
#248 = CARTESIAN_POINT ( 'NONE',  ( 0.0000000000000000000, 0.0000000000000000000, 0.0000000000000000000 ) ) ;
#249 = APPROVAL_DATE_TIME ( #309, #10 ) ;
#250 = DIRECTION ( 'NONE',  ( 0.0000000000000000000, 0.0000000000000000000, 1.000000000000000000 ) ) ;
#251 = DIRECTION ( 'NONE',  ( 0.0000000000000000000, 1.000000000000000000, 0.0000000000000000000 ) ) ;
#252 = DIRECTION ( 'NONE',  ( 0.0000000000000000000, -0.0000000000000000000, 1.000000000000000000 ) ) ;
#253 = APPROVAL_STATUS ( 'not_yet_approved' ) ;
#254 = PERSON_AND_ORGANIZATION_ROLE ( 'design_supplier' ) ;
#255 = AXIS2_PLACEMENT_3D ( 'NONE', #9, #362, #222 ) ;
#256 = CARTESIAN_POINT ( 'NONE',  ( 5.204748896376250107E-14, 0.0000000000000000000, 424.9999999999999432 ) ) ;
#257 = EDGE_LOOP ( 'NONE', ( #1, #324 ) ) ;
#258 = APPROVAL_ROLE ( '' ) ;
#259 = DATE_AND_TIME ( #202, #274 ) ;
#260 = APPROVAL_PERSON_ORGANIZATION ( #30, #325, #182 ) ;
#261 = CC_DESIGN_PERSON_AND_ORGANIZATION_ASSIGNMENT ( #339, #63, ( #105 ) ) ;
#262 = ORIENTED_EDGE ( 'NONE', *, *, #298, .F. ) ;
#263 = UNCERTAINTY_MEASURE_WITH_UNIT (LENGTH_MEASURE( 1.000000000000000082E-05 ), #219, 'distance_accuracy_value', 'NONE');
#264 = MECHANICAL_CONTEXT ( 'NONE', #233, 'mechanical' ) ;
#265 = AXIS2_PLACEMENT_3D ( 'NONE', #337, #61, #252 ) ;
#266 = PRODUCT_DEFINITION ( 'UNKNOWN', '', #68, #92 ) ;
#267 = ORIENTED_EDGE ( 'NONE', *, *, #342, .F. ) ;
#268 = DIRECTION ( 'NONE',  ( 0.0000000000000000000, 1.000000000000000000, 0.0000000000000000000 ) ) ;
#269 = EDGE_CURVE ( 'NONE', #319, #76, #314, .T. ) ;
#270 = VERTEX_POINT ( 'NONE', #256 ) ;
#271 = DIRECTION ( 'NONE',  ( -0.0000000000000000000, -1.000000000000000000, -0.0000000000000000000 ) ) ;
#272 = CC_DESIGN_PERSON_AND_ORGANIZATION_ASSIGNMENT ( #139, #236, ( #102 ) ) ;
#273 = DIRECTION ( 'NONE',  ( 0.0000000000000000000, 0.0000000000000000000, 1.000000000000000000 ) ) ;
#274 = LOCAL_TIME ( 8, 38, 11.00000000000000000, #315 ) ;
#275 = AXIS2_PLACEMENT_3D ( 'NONE', #186, #188, #250 ) ;
#276 = COORDINATED_UNIVERSAL_TIME_OFFSET ( 2, 0, .AHEAD. ) ;
#277 = ADVANCED_FACE ( 'NONE', ( #308 ), #340, .F. ) ;
#278 = CARTESIAN_POINT ( 'NONE',  ( 0.0000000000000000000, 200.0000000000000000, 0.0000000000000000000 ) ) ;
#279 = CARTESIAN_POINT ( 'NONE',  ( 3.918869757271529790E-14, 200.0000000000000000, 319.9999999999999432 ) ) ;
#280 = APPROVAL_DATE_TIME ( #341, #80 ) ;
#281 = PRODUCT_DEFINITION_SHAPE ( 'NONE', 'NONE',  #307 ) ;
#282 = CC_DESIGN_DATE_AND_TIME_ASSIGNMENT ( #133, #231, ( #105 ) ) ;
#283 = AXIS2_PLACEMENT_3D ( 'NONE', #278, #220, #273 ) ;
#284 = COORDINATED_UNIVERSAL_TIME_OFFSET ( 2, 0, .AHEAD. ) ;
#285 = APPLICATION_PROTOCOL_DEFINITION ( 'international standard', 'config_control_design', 1994, #194 ) ;
#286 =( NAMED_UNIT ( * ) PLANE_ANGLE_UNIT ( ) SI_UNIT ( $, .RADIAN. ) );
#287 = PERSON_AND_ORGANIZATION_ROLE ( 'creator' ) ;
#288 = CALENDAR_DATE ( 2020, 16, 3 ) ;
#289 = APPROVAL_PERSON_ORGANIZATION ( #301, #10, #159 ) ;
#290 = CC_DESIGN_SECURITY_CLASSIFICATION ( #105, ( #68 ) ) ;
#291 = APPLICATION_PROTOCOL_DEFINITION ( 'international standard', 'config_control_design', 1994, #175 ) ;
#292 = EDGE_LOOP ( 'NONE', ( #180, #354, #51, #45 ) ) ;
#293 = AXIS2_PLACEMENT_3D ( 'NONE', #310, #199, #304 ) ;
#294 = PERSON_AND_ORGANIZATION ( #94, #115 ) ;
#295 =( NAMED_UNIT ( * ) SI_UNIT ( $, .STERADIAN. ) SOLID_ANGLE_UNIT ( ) );
#296 = ORIENTED_EDGE ( 'NONE', *, *, #31, .T. ) ;
#297 = FACE_OUTER_BOUND ( 'NONE', #147, .T. ) ;
#298 = EDGE_CURVE ( 'NONE', #352, #204, #161, .T. ) ;
#299 =( LENGTH_UNIT ( ) NAMED_UNIT ( * ) SI_UNIT ( .MILLI., .METRE. ) );
#300 = DIRECTION ( 'NONE',  ( 0.0000000000000000000, 0.0000000000000000000, 1.000000000000000000 ) ) ;
#301 = PERSON_AND_ORGANIZATION ( #94, #115 ) ;
#302 = LOCAL_TIME ( 8, 38, 11.00000000000000000, #96 ) ;
#303 = AXIS2_PLACEMENT_3D ( 'NONE', #238, #53, #11 ) ;
#304 = DIRECTION ( 'NONE',  ( 0.0000000000000000000, 0.0000000000000000000, -1.000000000000000000 ) ) ;
#305 = PERSON ( 'NAUO-PER1', 'UNSPECIFIED', 'UNSPECIFIED', ('UNSPECIFIED'), ('UNSPECIFIED'), ('UNSPECIFIED') ) ;
#306 = PERSON_AND_ORGANIZATION ( #94, #115 ) ;
#307 = PRODUCT_DEFINITION ( 'UNKNOWN', '', #122, #70 ) ;
#308 = FACE_OUTER_BOUND ( 'NONE', #292, .T. ) ;
#309 = DATE_AND_TIME ( #123, #332 ) ;
#310 = CARTESIAN_POINT ( 'NONE',  ( 0.0000000000000000000, 200.0000000000000000, 0.0000000000000000000 ) ) ;
#311 = APPROVAL_ROLE ( '' ) ;
#312 = LOCAL_TIME ( 8, 38, 11.00000000000000000, #284 ) ;
#313 = SHAPE_REPRESENTATION ( 'kaivo-osa-korotusrengas_Kaukol„mp”', ( #372 ), #157 ) ;
#314 = CIRCLE ( 'NONE', #144, 319.9999999999999432 ) ;
#315 = COORDINATED_UNIVERSAL_TIME_OFFSET ( 2, 0, .AHEAD. ) ;
#316 = ORIENTED_EDGE ( 'NONE', *, *, #3, .T. ) ;
#317 = PRODUCT_DEFINITION_SHAPE ( 'NONE', 'NONE',  #373 ) ;
#318 = PERSON_AND_ORGANIZATION ( #94, #115 ) ;
#319 = VERTEX_POINT ( 'NONE', #279 ) ;
#320 = DATE_AND_TIME ( #206, #77 ) ;
#321 = CC_DESIGN_APPROVAL ( #358, ( #105 ) ) ;
#322 = ORIENTED_EDGE ( 'NONE', *, *, #173, .T. ) ;
#323 = DIRECTION ( 'NONE',  ( 0.0000000000000000000, 0.0000000000000000000, 1.000000000000000000 ) ) ;
#324 = ORIENTED_EDGE ( 'NONE', *, *, #269, .F. ) ;
#325 = APPROVAL ( #146, 'UNSPECIFIED' ) ;
#326 = DATE_AND_TIME ( #359, #243 ) ;
#327 = CC_DESIGN_PERSON_AND_ORGANIZATION_ASSIGNMENT ( #15, #177, ( #307 ) ) ;
#328 = CARTESIAN_POINT ( 'NONE',  ( 0.0000000000000000000, 0.0000000000000000000, 0.0000000000000000000 ) ) ;
#329 = DIRECTION ( 'NONE',  ( 0.0000000000000000000, 1.000000000000000000, 0.0000000000000000000 ) ) ;
#330 = DATE_AND_TIME ( #39, #98 ) ;
#331 = DATE_AND_TIME ( #93, #29 ) ;
#332 = LOCAL_TIME ( 8, 38, 11.00000000000000000, #276 ) ;
#333 = EDGE_CURVE ( 'NONE', #319, #74, #81, .T. ) ;
#334 = AXIS2_PLACEMENT_3D ( 'NONE', #50, #268, #323 ) ;
#335 = CARTESIAN_POINT ( 'NONE',  ( 0.0000000000000000000, 0.0000000000000000000, 0.0000000000000000000 ) ) ;
#336 = DIRECTION ( 'NONE',  ( 0.0000000000000000000, 0.0000000000000000000, 1.000000000000000000 ) ) ;
#337 = CARTESIAN_POINT ( 'NONE',  ( 0.0000000000000000000, 200.0000000000000000, 0.0000000000000000000 ) ) ;
#338 = PERSON_AND_ORGANIZATION ( #94, #115 ) ;
#339 = PERSON_AND_ORGANIZATION ( #94, #115 ) ;
#340 = CYLINDRICAL_SURFACE ( 'NONE', #293, 319.9999999999999432 ) ;
#341 = DATE_AND_TIME ( #101, #366 ) ;
#342 = EDGE_CURVE ( 'NONE', #74, #148, #232, .T. ) ;
#343 = PERSON_AND_ORGANIZATION ( #94, #115 ) ;
#344 = ORIENTED_EDGE ( 'NONE', *, *, #44, .F. ) ;
#345 = PRODUCT_DEFINITION_SHAPE ( 'NONE', 'NONE',  #266 ) ;
#346 = COORDINATED_UNIVERSAL_TIME_OFFSET ( 2, 0, .AHEAD. ) ;
#347 = CC_DESIGN_PERSON_AND_ORGANIZATION_ASSIGNMENT ( #169, #254, ( #68 ) ) ;
#348 = APPLICATION_PROTOCOL_DEFINITION ( 'international standard', 'config_control_design', 1994, #136 ) ;
#349 = APPROVAL_PERSON_ORGANIZATION ( #306, #170, #223 ) ;
#350 = ORIENTED_EDGE ( 'NONE', *, *, #173, .F. ) ;
#351 = APPROVAL_DATE_TIME ( #112, #213 ) ;
#352 = VERTEX_POINT ( 'NONE', #119 ) ;
#353 = APPROVAL_STATUS ( 'not_yet_approved' ) ;
#354 = ORIENTED_EDGE ( 'NONE', *, *, #333, .T. ) ;
#355 = DIRECTION ( 'NONE',  ( 0.0000000000000000000, 1.000000000000000000, 0.0000000000000000000 ) ) ;
#356 = SHAPE_REPRESENTATION_RELATIONSHIP ( 'NONE' , 'NONE' ,  #313, #129 ) ;
#357 = LINE ( 'NONE', #211, #42 ) ;
#358 = APPROVAL ( #67, 'UNSPECIFIED' ) ;
#359 = CALENDAR_DATE ( 2020, 16, 3 ) ;
#360 = APPROVAL_PERSON_ORGANIZATION ( #343, #358, #200 ) ;
#361 = VECTOR ( 'NONE', #38, 1000.000000000000000 ) ;
#362 = DIRECTION ( 'NONE',  ( -0.0000000000000000000, -1.000000000000000000, -0.0000000000000000000 ) ) ;
#363 = DIRECTION ( 'NONE',  ( 0.0000000000000000000, 1.000000000000000000, 0.0000000000000000000 ) ) ;
#364 = SHAPE_DEFINITION_REPRESENTATION ( #281, #313 ) ;
#365 = DATE_TIME_ROLE ( 'creation_date' ) ;
#366 = LOCAL_TIME ( 8, 38, 11.00000000000000000, #164 ) ;
#367 = SECURITY_CLASSIFICATION_LEVEL ( 'unclassified' ) ;
#368 = AXIS2_PLACEMENT_3D ( 'NONE', #328, #13, #55 ) ;
#369 = CC_DESIGN_APPROVAL ( #170, ( #122 ) ) ;
#370 = CALENDAR_DATE ( 2020, 16, 3 ) ;
#371 = MECHANICAL_CONTEXT ( 'NONE', #194, 'mechanical' ) ;
#372 = AXIS2_PLACEMENT_3D ( 'NONE', #335, #111, #149 ) ;
#373 = NEXT_ASSEMBLY_USAGE_OCCURRENCE ( 'NAUO1', ' ', ' ', #266, #307, $ ) ;
ENDSEC;
END-ISO-10303-21;
