ISO-10303-21;
HEADER;
FILE_DESCRIPTION (( 'STEP AP203' ),
    '1' );
FILE_NAME ('Rudus 6764100 Korotusrengas kaukolämpö 640x100.step',
    '2020-03-16T06:36:41',
    ( '' ),
    ( '' ),
    'SwSTEP 2.0',
    'SolidWorks 2019',
    '' );
FILE_SCHEMA (( 'CONFIG_CONTROL_DESIGN' ));
ENDSEC;

DATA;
#1 = APPROVAL_PERSON_ORGANIZATION ( #316, #245, #161 ) ;
#2 = CARTESIAN_POINT ( 'NONE',  ( 0.0000000000000000000, 100.0000000000000000, 0.0000000000000000000 ) ) ;
#3 = VECTOR ( 'NONE', #321, 1000.000000000000000 ) ;
#4 = ORIENTED_EDGE ( 'NONE', *, *, #14, .F. ) ;
#5 = PRODUCT_RELATED_PRODUCT_CATEGORY ( 'detail', '', ( #328 ) ) ;
#6 = SHAPE_REPRESENTATION ( 'Rudus 6764100 Korotusrengas kaukolämpö 640x100', ( #64, #333 ), #120 ) ;
#7 = ORIENTED_EDGE ( 'NONE', *, *, #285, .F. ) ;
#8 = LOCAL_TIME ( 8, 36, 41.00000000000000000, #264 ) ;
#9 = CARTESIAN_POINT ( 'NONE',  ( 0.0000000000000000000, 0.0000000000000000000, 0.0000000000000000000 ) ) ;
#10 = CARTESIAN_POINT ( 'NONE',  ( 0.0000000000000000000, 100.0000000000000000, 0.0000000000000000000 ) ) ;
#11 = AXIS2_PLACEMENT_3D ( 'NONE', #2, #30, #266 ) ;
#12 = EDGE_LOOP ( 'NONE', ( #76, #189, #335, #101 ) ) ;
#13 = DIRECTION ( 'NONE',  ( 0.0000000000000000000, 1.000000000000000000, 0.0000000000000000000 ) ) ;
#14 = EDGE_CURVE ( 'NONE', #153, #299, #122, .T. ) ;
#15 = CALENDAR_DATE ( 2020, 16, 3 ) ;
#16 = CARTESIAN_POINT ( 'NONE',  ( 0.0000000000000000000, 100.0000000000000000, 0.0000000000000000000 ) ) ;
#17 = SHAPE_DEFINITION_REPRESENTATION ( #282, #6 ) ;
#18 = PERSON_AND_ORGANIZATION_ROLE ( 'design_supplier' ) ;
#19 = MANIFOLD_SOLID_BREP ( 'Boss-Extrude-rengas', #206 ) ;
#20 = APPROVAL ( #298, 'UNSPECIFIED' ) ;
#21 = DATE_AND_TIME ( #280, #341 ) ;
#22 = AXIS2_PLACEMENT_3D ( 'NONE', #10, #221, #360 ) ;
#23 = PERSON_AND_ORGANIZATION_ROLE ( 'classification_officer' ) ;
#24 = ORIENTED_EDGE ( 'NONE', *, *, #87, .F. ) ;
#25 = APPROVAL_DATE_TIME ( #21, #296 ) ;
#26 = ORIENTED_EDGE ( 'NONE', *, *, #285, .T. ) ;
#27 = EDGE_CURVE ( 'NONE', #354, #273, #220, .T. ) ;
#28 = CALENDAR_DATE ( 2020, 16, 3 ) ;
#29 = CC_DESIGN_APPROVAL ( #319, ( #158 ) ) ;
#30 = DIRECTION ( 'NONE',  ( 0.0000000000000000000, 1.000000000000000000, 0.0000000000000000000 ) ) ;
#31 = CC_DESIGN_PERSON_AND_ORGANIZATION_ASSIGNMENT ( #200, #317, ( #166 ) ) ;
#32 = DIRECTION ( 'NONE',  ( 0.0000000000000000000, 0.0000000000000000000, -1.000000000000000000 ) ) ;
#33 = CARTESIAN_POINT ( 'NONE',  ( 0.0000000000000000000, 0.0000000000000000000, -424.9999999999999432 ) ) ;
#34 = LINE ( 'NONE', #118, #235 ) ;
#35 = APPROVAL_ROLE ( '' ) ;
#36 = EDGE_CURVE ( 'NONE', #209, #273, #34, .T. ) ;
#37 = PERSON ( 'NAUO-PER1', 'UNSPECIFIED', 'UNSPECIFIED', ('UNSPECIFIED'), ('UNSPECIFIED'), ('UNSPECIFIED') ) ;
#38 = AXIS2_PLACEMENT_3D ( 'NONE', #219, #276, #124 ) ;
#39 = APPROVAL_PERSON_ORGANIZATION ( #62, #20, #35 ) ;
#40 = FACE_OUTER_BOUND ( 'NONE', #304, .T. ) ;
#41 = CIRCLE ( 'NONE', #11, 424.9999999999999432 ) ;
#42 = DATE_AND_TIME ( #337, #277 ) ;
#43 = ADVANCED_FACE ( 'NONE', ( #142 ), #301, .F. ) ;
#44 = LOCAL_TIME ( 8, 36, 41.00000000000000000, #148 ) ;
#45 = APPROVAL_STATUS ( 'not_yet_approved' ) ;
#46 = PERSON_AND_ORGANIZATION ( #327, #159 ) ;
#47 = ORIENTED_EDGE ( 'NONE', *, *, #201, .F. ) ;
#48 = DATE_TIME_ROLE ( 'creation_date' ) ;
#49 = APPLICATION_CONTEXT ( 'configuration controlled 3d designs of mechanical parts and assemblies' ) ;
#50 = APPLICATION_PROTOCOL_DEFINITION ( 'international standard', 'config_control_design', 1994, #302 ) ;
#51 = ORIENTED_EDGE ( 'NONE', *, *, #80, .F. ) ;
#52 = ADVANCED_FACE ( 'NONE', ( #324 ), #241, .F. ) ;
#53 = DATE_AND_TIME ( #107, #57 ) ;
#54 = PERSON_AND_ORGANIZATION_ROLE ( 'design_owner' ) ;
#55 = SECURITY_CLASSIFICATION_LEVEL ( 'unclassified' ) ;
#56 = PERSON_AND_ORGANIZATION ( #327, #159 ) ;
#57 = LOCAL_TIME ( 8, 36, 41.00000000000000000, #170 ) ;
#58 = VECTOR ( 'NONE', #140, 1000.000000000000000 ) ;
#59 = CC_DESIGN_APPROVAL ( #296, ( #331 ) ) ;
#60 = FACE_BOUND ( 'NONE', #178, .T. ) ;
#61 = DIRECTION ( 'NONE',  ( -0.0000000000000000000, -1.000000000000000000, -0.0000000000000000000 ) ) ;
#62 = PERSON_AND_ORGANIZATION ( #327, #159 ) ;
#63 = CC_DESIGN_PERSON_AND_ORGANIZATION_ASSIGNMENT ( #314, #283, ( #331 ) ) ;
#64 = AXIS2_PLACEMENT_3D ( 'NONE', #251, #226, #362 ) ;
#65 = DIRECTION ( 'NONE',  ( 0.0000000000000000000, 0.0000000000000000000, 1.000000000000000000 ) ) ;
#66 = VERTEX_POINT ( 'NONE', #205 ) ;
#67 = ORIENTED_EDGE ( 'NONE', *, *, #27, .F. ) ;
#68 = ADVANCED_FACE ( 'NONE', ( #81 ), #318, .T. ) ;
#69 = LOCAL_TIME ( 8, 36, 41.00000000000000000, #229 ) ;
#70 =( LENGTH_UNIT ( ) NAMED_UNIT ( * ) SI_UNIT ( .MILLI., .METRE. ) );
#71 = PRODUCT ( 'kaivo-osa-korotusrengas_Kaukol„mp”', 'kaivo-osa-korotusrengas_Kaukol„mp”', '', ( #180 ) ) ;
#72 = APPROVAL_DATE_TIME ( #131, #319 ) ;
#73 = CC_DESIGN_APPROVAL ( #198, ( #242 ) ) ;
#74 = SECURITY_CLASSIFICATION ( '', '', #204 ) ;
#75 = PERSON_AND_ORGANIZATION ( #327, #159 ) ;
#76 = ORIENTED_EDGE ( 'NONE', *, *, #368, .F. ) ;
#77 = PERSON_AND_ORGANIZATION ( #327, #159 ) ;
#78 = PERSON_AND_ORGANIZATION ( #327, #159 ) ;
#79 = CARTESIAN_POINT ( 'NONE',  ( 0.0000000000000000000, -161.7731247645711790, 0.0000000000000000000 ) ) ;
#80 = EDGE_CURVE ( 'NONE', #330, #299, #250, .T. ) ;
#81 = FACE_OUTER_BOUND ( 'NONE', #12, .T. ) ;
#82 = COORDINATED_UNIVERSAL_TIME_OFFSET ( 2, 0, .AHEAD. ) ;
#83 = APPLICATION_PROTOCOL_DEFINITION ( 'international standard', 'config_control_design', 1994, #338 ) ;
#84 = PERSON_AND_ORGANIZATION_ROLE ( 'design_supplier' ) ;
#85 = CIRCLE ( 'NONE', #303, 319.9999999999999432 ) ;
#86 = AXIS2_PLACEMENT_3D ( 'NONE', #215, #329, #65 ) ;
#87 = EDGE_CURVE ( 'NONE', #273, #354, #97, .T. ) ;
#88 = CARTESIAN_POINT ( 'NONE',  ( 3.918869757271529790E-14, 0.0000000000000000000, 319.9999999999999432 ) ) ;
#89 = DIRECTION ( 'NONE',  ( 0.0000000000000000000, 0.0000000000000000000, 1.000000000000000000 ) ) ;
#90 = ORIENTED_EDGE ( 'NONE', *, *, #36, .F. ) ;
#91 = APPROVAL_PERSON_ORGANIZATION ( #138, #293, #199 ) ;
#92 = CARTESIAN_POINT ( 'NONE',  ( 0.0000000000000000000, 100.0000000000000000, 0.0000000000000000000 ) ) ;
#93 = ORIENTED_EDGE ( 'NONE', *, *, #201, .T. ) ;
#94 = FACE_BOUND ( 'NONE', #244, .T. ) ;
#95 = CC_DESIGN_PERSON_AND_ORGANIZATION_ASSIGNMENT ( #343, #54, ( #328 ) ) ;
#96 =( NAMED_UNIT ( * ) PLANE_ANGLE_UNIT ( ) SI_UNIT ( $, .RADIAN. ) );
#97 = CIRCLE ( 'NONE', #86, 424.9999999999999432 ) ;
#98 = CARTESIAN_POINT ( 'NONE',  ( 0.0000000000000000000, 100.0000000000000000, -424.9999999999999432 ) ) ;
#99 = APPROVAL_DATE_TIME ( #190, #20 ) ;
#100 =( NAMED_UNIT ( * ) SI_UNIT ( $, .STERADIAN. ) SOLID_ANGLE_UNIT ( ) );
#101 = ORIENTED_EDGE ( 'NONE', *, *, #87, .T. ) ;
#102 = COORDINATED_UNIVERSAL_TIME_OFFSET ( 2, 0, .AHEAD. ) ;
#103 = DATE_AND_TIME ( #194, #69 ) ;
#104 = LOCAL_TIME ( 8, 36, 41.00000000000000000, #259 ) ;
#105 = SECURITY_CLASSIFICATION_LEVEL ( 'unclassified' ) ;
#106 = AXIS2_PLACEMENT_3D ( 'NONE', #9, #116, #113 ) ;
#107 = CALENDAR_DATE ( 2020, 16, 3 ) ;
#108 = CC_DESIGN_PERSON_AND_ORGANIZATION_ASSIGNMENT ( #310, #255, ( #358 ) ) ;
#109 = DIRECTION ( 'NONE',  ( 1.000000000000000000, 0.0000000000000000000, 0.0000000000000000000 ) ) ;
#110 = SECURITY_CLASSIFICATION ( '', '', #55 ) ;
#111 = CC_DESIGN_PERSON_AND_ORGANIZATION_ASSIGNMENT ( #228, #248, ( #242 ) ) ;
#112 =( REPRESENTATION_RELATIONSHIP ('NONE','NONE', #6, #172 ) REPRESENTATION_RELATIONSHIP_WITH_TRANSFORMATION ( #369 )SHAPE_REPRESENTATION_RELATIONSHIP( ) );
#113 = DIRECTION ( 'NONE',  ( 0.0000000000000000000, -0.0000000000000000000, 1.000000000000000000 ) ) ;
#114 = CC_DESIGN_PERSON_AND_ORGANIZATION_ASSIGNMENT ( #132, #336, ( #71 ) ) ;
#115 = ORIENTED_EDGE ( 'NONE', *, *, #279, .T. ) ;
#116 = DIRECTION ( 'NONE',  ( 0.0000000000000000000, 1.000000000000000000, 0.0000000000000000000 ) ) ;
#117 = DIRECTION ( 'NONE',  ( 0.0000000000000000000, 0.0000000000000000000, 1.000000000000000000 ) ) ;
#118 = CARTESIAN_POINT ( 'NONE',  ( 0.0000000000000000000, 100.0000000000000000, -424.9999999999999432 ) ) ;
#119 = DESIGN_CONTEXT ( 'detailed design', #338, 'design' ) ;
#120 =( GEOMETRIC_REPRESENTATION_CONTEXT ( 3 ) GLOBAL_UNCERTAINTY_ASSIGNED_CONTEXT ( ( #290 ) ) GLOBAL_UNIT_ASSIGNED_CONTEXT ( ( #363, #96, #100 ) ) REPRESENTATION_CONTEXT ( 'NONE', 'WORKASPACE' ) );
#121 = CC_DESIGN_PERSON_AND_ORGANIZATION_ASSIGNMENT ( #138, #23, ( #110 ) ) ;
#122 = LINE ( 'NONE', #295, #3 ) ;
#123 = DIRECTION ( 'NONE',  ( 0.0000000000000000000, 1.000000000000000000, 0.0000000000000000000 ) ) ;
#124 = DIRECTION ( 'NONE',  ( 0.0000000000000000000, 0.0000000000000000000, 1.000000000000000000 ) ) ;
#125 = PRODUCT_DEFINITION_SHAPE ( 'NONE', 'NONE',  #373 ) ;
#126 = CC_DESIGN_DATE_AND_TIME_ASSIGNMENT ( #372, #322, ( #74 ) ) ;
#127 = PRODUCT_DEFINITION_SHAPE ( 'NONE', 'NONE',  #331 ) ;
#128 = PERSON_AND_ORGANIZATION ( #327, #159 ) ;
#129 = AXIS2_PLACEMENT_3D ( 'NONE', #260, #196, #348 ) ;
#130 = CC_DESIGN_PERSON_AND_ORGANIZATION_ASSIGNMENT ( #347, #84, ( #166 ) ) ;
#131 = DATE_AND_TIME ( #192, #307 ) ;
#132 = PERSON_AND_ORGANIZATION ( #327, #159 ) ;
#133 = AXIS2_PLACEMENT_3D ( 'NONE', #254, #139, #371 ) ;
#134 = DATE_AND_TIME ( #164, #104 ) ;
#135 = APPROVAL_ROLE ( '' ) ;
#136 = APPROVAL_DATE_TIME ( #232, #245 ) ;
#137 = ORIENTED_EDGE ( 'NONE', *, *, #213, .T. ) ;
#138 = PERSON_AND_ORGANIZATION ( #37, #188 ) ;
#139 = DIRECTION ( 'NONE',  ( 0.0000000000000000000, 0.0000000000000000000, 1.000000000000000000 ) ) ;
#140 = DIRECTION ( 'NONE',  ( -0.0000000000000000000, -1.000000000000000000, -0.0000000000000000000 ) ) ;
#141 = FACE_OUTER_BOUND ( 'NONE', #364, .T. ) ;
#142 = FACE_OUTER_BOUND ( 'NONE', #326, .T. ) ;
#143 = ORIENTED_EDGE ( 'NONE', *, *, #257, .T. ) ;
#144 = CARTESIAN_POINT ( 'NONE',  ( 0.0000000000000000000, 100.0000000000000000, 0.0000000000000000000 ) ) ;
#145 = CARTESIAN_POINT ( 'NONE',  ( 0.0000000000000000000, 0.0000000000000000000, 0.0000000000000000000 ) ) ;
#146 = AXIS2_PLACEMENT_3D ( 'NONE', #145, #234, #177 ) ;
#147 = AXIS2_PLACEMENT_3D ( 'NONE', #179, #211, #269 ) ;
#148 = COORDINATED_UNIVERSAL_TIME_OFFSET ( 2, 0, .AHEAD. ) ;
#149 = EDGE_LOOP ( 'NONE', ( #7, #143, #150, #51 ) ) ;
#150 = ORIENTED_EDGE ( 'NONE', *, *, #14, .T. ) ;
#151 = PLANE ( 'NONE',  #106 ) ;
#152 = CC_DESIGN_DATE_AND_TIME_ASSIGNMENT ( #202, #284, ( #110 ) ) ;
#153 = VERTEX_POINT ( 'NONE', #278 ) ;
#154 = VECTOR ( 'NONE', #237, 1000.000000000000000 ) ;
#155 = DIRECTION ( 'NONE',  ( 0.0000000000000000000, -0.0000000000000000000, 1.000000000000000000 ) ) ;
#156 = PRODUCT_RELATED_PRODUCT_CATEGORY ( 'detail', '', ( #71 ) ) ;
#157 = VERTEX_POINT ( 'NONE', #186 ) ;
#158 = PRODUCT_DEFINITION_FORMATION_WITH_SPECIFIED_SOURCE ( 'ANY', '', #71, .NOT_KNOWN. ) ;
#159 = ORGANIZATION ( 'UNSPECIFIED', 'UNSPECIFIED', '' ) ;
#160 = PERSON_AND_ORGANIZATION_ROLE ( 'creator' ) ;
#161 = APPROVAL_ROLE ( '' ) ;
#162 = APPLICATION_PROTOCOL_DEFINITION ( 'international standard', 'config_control_design', 1994, #49 ) ;
#163 = ADVANCED_FACE ( 'NONE', ( #305 ), #182, .T. ) ;
#164 = CALENDAR_DATE ( 2020, 16, 3 ) ;
#165 = APPROVAL_ROLE ( '' ) ;
#166 = PRODUCT_DEFINITION_FORMATION_WITH_SPECIFIED_SOURCE ( 'ANY', '', #328, .NOT_KNOWN. ) ;
#167 = APPROVAL_STATUS ( 'not_yet_approved' ) ;
#168 = CONTEXT_DEPENDENT_SHAPE_REPRESENTATION ( #112, #125 ) ;
#169 = AXIS2_PLACEMENT_3D ( 'NONE', #214, #207, #32 ) ;
#170 = COORDINATED_UNIVERSAL_TIME_OFFSET ( 2, 0, .AHEAD. ) ;
#171 = PERSON_AND_ORGANIZATION_ROLE ( 'classification_officer' ) ;
#172 = SHAPE_REPRESENTATION ( 'kaivo-osa-korotusrengas_Kaukol„mp”', ( #325 ), #370 ) ;
#173 = CARTESIAN_POINT ( 'NONE',  ( 0.0000000000000000000, 100.0000000000000000, 0.0000000000000000000 ) ) ;
#174 = APPROVAL_PERSON_ORGANIZATION ( #77, #296, #286 ) ;
#175 = CARTESIAN_POINT ( 'NONE',  ( 5.204748896376250107E-14, 100.0000000000000000, 424.9999999999999432 ) ) ;
#176 = DIRECTION ( 'NONE',  ( 0.0000000000000000000, 1.000000000000000000, 0.0000000000000000000 ) ) ;
#177 = DIRECTION ( 'NONE',  ( 0.0000000000000000000, 0.0000000000000000000, 1.000000000000000000 ) ) ;
#178 = EDGE_LOOP ( 'NONE', ( #93, #246 ) ) ;
#179 = CARTESIAN_POINT ( 'NONE',  ( 0.0000000000000000000, 100.0000000000000000, 0.0000000000000000000 ) ) ;
#180 = MECHANICAL_CONTEXT ( 'NONE', #357, 'mechanical' ) ;
#181 = APPROVAL ( #167, 'UNSPECIFIED' ) ;
#182 = CYLINDRICAL_SURFACE ( 'NONE', #22, 424.9999999999999432 ) ;
#183 = CIRCLE ( 'NONE', #247, 319.9999999999999432 ) ;
#184 = ORIENTED_EDGE ( 'NONE', *, *, #213, .F. ) ;
#185 = CC_DESIGN_APPROVAL ( #181, ( #358 ) ) ;
#186 = CARTESIAN_POINT ( 'NONE',  ( 3.918869757271529790E-14, 100.0000000000000000, 319.9999999999999432 ) ) ;
#187 = ADVANCED_FACE ( 'NONE', ( #40, #94 ), #216, .T. ) ;
#188 = ORGANIZATION ( 'NAUO-ORG1', 'UNSPECIFIED', 'UNSPECIFIED' ) ;
#189 = ORIENTED_EDGE ( 'NONE', *, *, #350, .F. ) ;
#190 = DATE_AND_TIME ( #15, #44 ) ;
#191 = ADVANCED_BREP_SHAPE_REPRESENTATION ( '', ( #19, #325 ), #370 ) ;
#192 = CALENDAR_DATE ( 2020, 16, 3 ) ;
#193 = APPROVAL_STATUS ( 'not_yet_approved' ) ;
#194 = CALENDAR_DATE ( 2020, 16, 3 ) ;
#195 = COORDINATED_UNIVERSAL_TIME_OFFSET ( 2, 0, .AHEAD. ) ;
#196 = DIRECTION ( 'NONE',  ( -0.0000000000000000000, -1.000000000000000000, -0.0000000000000000000 ) ) ;
#197 = APPROVAL_DATE_TIME ( #134, #181 ) ;
#198 = APPROVAL ( #193, 'UNSPECIFIED' ) ;
#199 = APPROVAL_ROLE ( '' ) ;
#200 = PERSON_AND_ORGANIZATION ( #327, #159 ) ;
#201 = EDGE_CURVE ( 'NONE', #299, #330, #203, .T. ) ;
#202 = DATE_AND_TIME ( #345, #263 ) ;
#203 = CIRCLE ( 'NONE', #38, 319.9999999999999432 ) ;
#204 = SECURITY_CLASSIFICATION_LEVEL ( 'unclassified' ) ;
#205 = CARTESIAN_POINT ( 'NONE',  ( 5.204748896376250107E-14, 100.0000000000000000, 424.9999999999999432 ) ) ;
#206 = CLOSED_SHELL ( 'NONE', ( #43, #163, #187, #361, #68, #52 ) ) ;
#207 = DIRECTION ( 'NONE',  ( -0.0000000000000000000, -1.000000000000000000, -0.0000000000000000000 ) ) ;
#208 = ORIENTED_EDGE ( 'NONE', *, *, #350, .T. ) ;
#209 = VERTEX_POINT ( 'NONE', #98 ) ;
#210 = DIRECTION ( 'NONE',  ( 0.0000000000000000000, 1.000000000000000000, 0.0000000000000000000 ) ) ;
#211 = DIRECTION ( 'NONE',  ( -0.0000000000000000000, -1.000000000000000000, -0.0000000000000000000 ) ) ;
#212 = APPROVAL_PERSON_ORGANIZATION ( #128, #319, #165 ) ;
#213 = EDGE_CURVE ( 'NONE', #153, #157, #183, .T. ) ;
#214 = CARTESIAN_POINT ( 'NONE',  ( 0.0000000000000000000, 100.0000000000000000, 0.0000000000000000000 ) ) ;
#215 = CARTESIAN_POINT ( 'NONE',  ( 0.0000000000000000000, 0.0000000000000000000, 0.0000000000000000000 ) ) ;
#216 = PLANE ( 'NONE',  #332 ) ;
#217 = CC_DESIGN_PERSON_AND_ORGANIZATION_ASSIGNMENT ( #308, #160, ( #158 ) ) ;
#218 = LOCAL_TIME ( 8, 36, 41.00000000000000000, #287 ) ;
#219 = CARTESIAN_POINT ( 'NONE',  ( 0.0000000000000000000, 0.0000000000000000000, 0.0000000000000000000 ) ) ;
#220 = CIRCLE ( 'NONE', #146, 424.9999999999999432 ) ;
#221 = DIRECTION ( 'NONE',  ( -0.0000000000000000000, -1.000000000000000000, -0.0000000000000000000 ) ) ;
#222 = ORIENTED_EDGE ( 'NONE', *, *, #279, .F. ) ;
#223 = DATE_AND_TIME ( #340, #291 ) ;
#224 = CC_DESIGN_PERSON_AND_ORGANIZATION_ASSIGNMENT ( #46, #18, ( #158 ) ) ;
#225 = APPROVAL_PERSON_ORGANIZATION ( #75, #198, #349 ) ;
#226 = DIRECTION ( 'NONE',  ( 0.0000000000000000000, 0.0000000000000000000, 1.000000000000000000 ) ) ;
#227 = ORIENTED_EDGE ( 'NONE', *, *, #257, .F. ) ;
#228 = PERSON_AND_ORGANIZATION ( #327, #159 ) ;
#229 = COORDINATED_UNIVERSAL_TIME_OFFSET ( 2, 0, .AHEAD. ) ;
#230 = SHAPE_REPRESENTATION_RELATIONSHIP ( 'NONE' , 'NONE' ,  #172, #191 ) ;
#231 = CC_DESIGN_DATE_AND_TIME_ASSIGNMENT ( #42, #48, ( #331 ) ) ;
#232 = DATE_AND_TIME ( #28, #218 ) ;
#233 = CARTESIAN_POINT ( 'NONE',  ( 3.918869757271529790E-14, 100.0000000000000000, 319.9999999999999432 ) ) ;
#234 = DIRECTION ( 'NONE',  ( 0.0000000000000000000, 1.000000000000000000, 0.0000000000000000000 ) ) ;
#235 = VECTOR ( 'NONE', #61, 1000.000000000000000 ) ;
#236 = CARTESIAN_POINT ( 'NONE',  ( 5.204748896376250107E-14, 0.0000000000000000000, 424.9999999999999432 ) ) ;
#237 = DIRECTION ( 'NONE',  ( -0.0000000000000000000, -1.000000000000000000, -0.0000000000000000000 ) ) ;
#238 = AXIS2_PLACEMENT_3D ( 'NONE', #355, #13, #274 ) ;
#239 = UNCERTAINTY_MEASURE_WITH_UNIT (LENGTH_MEASURE( 1.000000000000000082E-05 ), #70, 'distance_accuracy_value', 'NONE');
#240 = DIRECTION ( 'NONE',  ( -1.000000000000000000, -5.551115123125782702E-17, 2.775557561562891351E-16 ) ) ;
#241 = CYLINDRICAL_SURFACE ( 'NONE', #169, 319.9999999999999432 ) ;
#242 = SECURITY_CLASSIFICATION ( '', '', #105 ) ;
#243 = APPLICATION_PROTOCOL_DEFINITION ( 'international standard', 'config_control_design', 1994, #357 ) ;
#244 = EDGE_LOOP ( 'NONE', ( #184, #227 ) ) ;
#245 = APPROVAL ( #45, 'UNSPECIFIED' ) ;
#246 = ORIENTED_EDGE ( 'NONE', *, *, #80, .T. ) ;
#247 = AXIS2_PLACEMENT_3D ( 'NONE', #92, #176, #117 ) ;
#248 = PERSON_AND_ORGANIZATION_ROLE ( 'classification_officer' ) ;
#249 = APPROVAL_STATUS ( 'not_yet_approved' ) ;
#250 = CIRCLE ( 'NONE', #238, 319.9999999999999432 ) ;
#251 = CARTESIAN_POINT ( 'NONE',  ( 0.0000000000000000000, 0.0000000000000000000, 0.0000000000000000000 ) ) ;
#252 = APPROVAL_STATUS ( 'not_yet_approved' ) ;
#253 = MECHANICAL_CONTEXT ( 'NONE', #302, 'mechanical' ) ;
#254 = CARTESIAN_POINT ( 'NONE',  ( 0.0000000000000000000, 0.0000000000000000000, 0.0000000000000000000 ) ) ;
#255 = PERSON_AND_ORGANIZATION_ROLE ( 'creator' ) ;
#256 = CALENDAR_DATE ( 2020, 16, 3 ) ;
#257 = EDGE_CURVE ( 'NONE', #157, #153, #85, .T. ) ;
#258 = LOCAL_TIME ( 8, 36, 41.00000000000000000, #82 ) ;
#259 = COORDINATED_UNIVERSAL_TIME_OFFSET ( 2, 0, .AHEAD. ) ;
#260 = CARTESIAN_POINT ( 'NONE',  ( 0.0000000000000000000, 100.0000000000000000, 0.0000000000000000000 ) ) ;
#261 = DATE_AND_TIME ( #256, #258 ) ;
#262 = DIRECTION ( 'NONE',  ( 0.0000000000000000000, 0.0000000000000000000, 1.000000000000000000 ) ) ;
#263 = LOCAL_TIME ( 8, 36, 41.00000000000000000, #342 ) ;
#264 = COORDINATED_UNIVERSAL_TIME_OFFSET ( 2, 0, .AHEAD. ) ;
#265 = CC_DESIGN_SECURITY_CLASSIFICATION ( #74, ( #166 ) ) ;
#266 = DIRECTION ( 'NONE',  ( 0.0000000000000000000, 0.0000000000000000000, 1.000000000000000000 ) ) ;
#267 = CC_DESIGN_DATE_AND_TIME_ASSIGNMENT ( #223, #339, ( #242 ) ) ;
#268 = AXIS2_PLACEMENT_3D ( 'NONE', #144, #210, #89 ) ;
#269 = DIRECTION ( 'NONE',  ( 0.0000000000000000000, 0.0000000000000000000, -1.000000000000000000 ) ) ;
#270 = CC_DESIGN_SECURITY_CLASSIFICATION ( #242, ( #158 ) ) ;
#271 = CARTESIAN_POINT ( 'NONE',  ( 0.0000000000000000000, 0.0000000000000000000, -319.9999999999999432 ) ) ;
#272 = CC_DESIGN_PERSON_AND_ORGANIZATION_ASSIGNMENT ( #56, #171, ( #74 ) ) ;
#273 = VERTEX_POINT ( 'NONE', #33 ) ;
#274 = DIRECTION ( 'NONE',  ( 0.0000000000000000000, 0.0000000000000000000, 1.000000000000000000 ) ) ;
#275 = ORIENTED_EDGE ( 'NONE', *, *, #27, .T. ) ;
#276 = DIRECTION ( 'NONE',  ( 0.0000000000000000000, 1.000000000000000000, 0.0000000000000000000 ) ) ;
#277 = LOCAL_TIME ( 8, 36, 41.00000000000000000, #195 ) ;
#278 = CARTESIAN_POINT ( 'NONE',  ( 0.0000000000000000000, 100.0000000000000000, -319.9999999999999432 ) ) ;
#279 = EDGE_CURVE ( 'NONE', #66, #209, #351, .T. ) ;
#280 = CALENDAR_DATE ( 2020, 16, 3 ) ;
#281 = APPROVAL_DATE_TIME ( #261, #293 ) ;
#282 = PRODUCT_DEFINITION_SHAPE ( 'NONE', 'NONE',  #358 ) ;
#283 = PERSON_AND_ORGANIZATION_ROLE ( 'creator' ) ;
#284 = DATE_TIME_ROLE ( 'classification_date' ) ;
#285 = EDGE_CURVE ( 'NONE', #157, #330, #352, .T. ) ;
#286 = APPROVAL_ROLE ( '' ) ;
#287 = COORDINATED_UNIVERSAL_TIME_OFFSET ( 2, 0, .AHEAD. ) ;
#288 = CARTESIAN_POINT ( 'NONE',  ( 0.0000000000000000000, 0.0000000000000000000, 0.0000000000000000000 ) ) ;
#289 = CC_DESIGN_APPROVAL ( #293, ( #110 ) ) ;
#290 = UNCERTAINTY_MEASURE_WITH_UNIT (LENGTH_MEASURE( 1.000000000000000082E-05 ), #363, 'distance_accuracy_value', 'NONE');
#291 = LOCAL_TIME ( 8, 36, 41.00000000000000000, #102 ) ;
#292 = CALENDAR_DATE ( 2020, 16, 3 ) ;
#293 = APPROVAL ( #249, 'UNKNOWN' ) ;
#294 =( NAMED_UNIT ( * ) SI_UNIT ( $, .STERADIAN. ) SOLID_ANGLE_UNIT ( ) );
#295 = CARTESIAN_POINT ( 'NONE',  ( 0.0000000000000000000, 100.0000000000000000, -319.9999999999999432 ) ) ;
#296 = APPROVAL ( #252, 'UNSPECIFIED' ) ;
#297 = DIRECTION ( 'NONE',  ( 0.0000000000000000000, 1.000000000000000000, 0.0000000000000000000 ) ) ;
#298 = APPROVAL_STATUS ( 'not_yet_approved' ) ;
#299 = VERTEX_POINT ( 'NONE', #271 ) ;
#300 = DIRECTION ( 'NONE',  ( 0.0000000000000000000, 0.0000000000000000000, 1.000000000000000000 ) ) ;
#301 = CYLINDRICAL_SURFACE ( 'NONE', #147, 319.9999999999999432 ) ;
#302 = APPLICATION_CONTEXT ( 'configuration controlled 3d designs of mechanical parts and assemblies' ) ;
#303 = AXIS2_PLACEMENT_3D ( 'NONE', #173, #297, #300 ) ;
#304 = EDGE_LOOP ( 'NONE', ( #208, #115 ) ) ;
#305 = FACE_OUTER_BOUND ( 'NONE', #309, .T. ) ;
#306 =( NAMED_UNIT ( * ) PLANE_ANGLE_UNIT ( ) SI_UNIT ( $, .RADIAN. ) );
#307 = LOCAL_TIME ( 8, 36, 41.00000000000000000, #365 ) ;
#308 = PERSON_AND_ORGANIZATION ( #327, #159 ) ;
#309 = EDGE_LOOP ( 'NONE', ( #222, #323, #275, #90 ) ) ;
#310 = PERSON_AND_ORGANIZATION ( #327, #159 ) ;
#311 = APPROVAL_STATUS ( 'not_yet_approved' ) ;
#312 = CC_DESIGN_APPROVAL ( #20, ( #74 ) ) ;
#313 = SHAPE_DEFINITION_REPRESENTATION ( #127, #172 ) ;
#314 = PERSON_AND_ORGANIZATION ( #327, #159 ) ;
#315 = CC_DESIGN_APPROVAL ( #245, ( #166 ) ) ;
#316 = PERSON_AND_ORGANIZATION ( #327, #159 ) ;
#317 = PERSON_AND_ORGANIZATION_ROLE ( 'creator' ) ;
#318 = CYLINDRICAL_SURFACE ( 'NONE', #129, 424.9999999999999432 ) ;
#319 = APPROVAL ( #311, 'UNSPECIFIED' ) ;
#320 = DESIGN_CONTEXT ( 'detailed design', #49, 'design' ) ;
#321 = DIRECTION ( 'NONE',  ( -0.0000000000000000000, -1.000000000000000000, -0.0000000000000000000 ) ) ;
#322 = DATE_TIME_ROLE ( 'classification_date' ) ;
#323 = ORIENTED_EDGE ( 'NONE', *, *, #368, .T. ) ;
#324 = FACE_OUTER_BOUND ( 'NONE', #149, .T. ) ;
#325 = AXIS2_PLACEMENT_3D ( 'NONE', #288, #262, #109 ) ;
#326 = EDGE_LOOP ( 'NONE', ( #137, #26, #47, #4 ) ) ;
#327 = PERSON ( 'UNSPECIFIED', 'UNSPECIFIED', 'UNSPECIFIED', ('UNSPECIFIED'), ('UNSPECIFIED'), ('UNSPECIFIED') ) ;
#328 = PRODUCT ( 'Rudus 6764100 Korotusrengas kaukolämpö 640x100', 'Rudus 6764100 Korotusrengas kaukolämpö 640x100', '', ( #253 ) ) ;
#329 = DIRECTION ( 'NONE',  ( 0.0000000000000000000, 1.000000000000000000, 0.0000000000000000000 ) ) ;
#330 = VERTEX_POINT ( 'NONE', #88 ) ;
#331 = PRODUCT_DEFINITION ( 'UNKNOWN', '', #158, #320 ) ;
#332 = AXIS2_PLACEMENT_3D ( 'NONE', #16, #123, #155 ) ;
#333 = AXIS2_PLACEMENT_3D ( 'NONE', #79, #353, #240 ) ;
#334 = CC_DESIGN_DATE_AND_TIME_ASSIGNMENT ( #103, #344, ( #358 ) ) ;
#335 = ORIENTED_EDGE ( 'NONE', *, *, #36, .T. ) ;
#336 = PERSON_AND_ORGANIZATION_ROLE ( 'design_owner' ) ;
#337 = CALENDAR_DATE ( 2020, 16, 3 ) ;
#338 = APPLICATION_CONTEXT ( 'configuration controlled 3d designs of mechanical parts and assemblies' ) ;
#339 = DATE_TIME_ROLE ( 'classification_date' ) ;
#340 = CALENDAR_DATE ( 2020, 16, 3 ) ;
#341 = LOCAL_TIME ( 8, 36, 41.00000000000000000, #367 ) ;
#342 = COORDINATED_UNIVERSAL_TIME_OFFSET ( 2, 0, .AHEAD. ) ;
#343 = PERSON_AND_ORGANIZATION ( #327, #159 ) ;
#344 = DATE_TIME_ROLE ( 'creation_date' ) ;
#345 = CALENDAR_DATE ( 2020, 16, 3 ) ;
#346 = CC_DESIGN_SECURITY_CLASSIFICATION ( #110, ( #373 ) ) ;
#347 = PERSON_AND_ORGANIZATION ( #327, #159 ) ;
#348 = DIRECTION ( 'NONE',  ( 0.0000000000000000000, 0.0000000000000000000, -1.000000000000000000 ) ) ;
#349 = APPROVAL_ROLE ( '' ) ;
#350 = EDGE_CURVE ( 'NONE', #209, #66, #41, .T. ) ;
#351 = CIRCLE ( 'NONE', #268, 424.9999999999999432 ) ;
#352 = LINE ( 'NONE', #233, #58 ) ;
#353 = DIRECTION ( 'NONE',  ( -5.551115123125781470E-17, 1.000000000000000000, 9.244463733058732095E-33 ) ) ;
#354 = VERTEX_POINT ( 'NONE', #236 ) ;
#355 = CARTESIAN_POINT ( 'NONE',  ( 0.0000000000000000000, 0.0000000000000000000, 0.0000000000000000000 ) ) ;
#356 = APPROVAL_PERSON_ORGANIZATION ( #78, #181, #135 ) ;
#357 = APPLICATION_CONTEXT ( 'configuration controlled 3d designs of mechanical parts and assemblies' ) ;
#358 = PRODUCT_DEFINITION ( 'UNKNOWN', '', #166, #119 ) ;
#359 = LINE ( 'NONE', #175, #154 ) ;
#360 = DIRECTION ( 'NONE',  ( 0.0000000000000000000, 0.0000000000000000000, -1.000000000000000000 ) ) ;
#361 = ADVANCED_FACE ( 'NONE', ( #141, #60 ), #151, .F. ) ;
#362 = DIRECTION ( 'NONE',  ( 1.000000000000000000, 0.0000000000000000000, 0.0000000000000000000 ) ) ;
#363 =( LENGTH_UNIT ( ) NAMED_UNIT ( * ) SI_UNIT ( .MILLI., .METRE. ) );
#364 = EDGE_LOOP ( 'NONE', ( #24, #67 ) ) ;
#365 = COORDINATED_UNIVERSAL_TIME_OFFSET ( 2, 0, .AHEAD. ) ;
#366 = APPROVAL_DATE_TIME ( #53, #198 ) ;
#367 = COORDINATED_UNIVERSAL_TIME_OFFSET ( 2, 0, .AHEAD. ) ;
#368 = EDGE_CURVE ( 'NONE', #66, #354, #359, .T. ) ;
#369 = ITEM_DEFINED_TRANSFORMATION ( 'NONE', 'NONE', #333,  #325 ) ;
#370 =( GEOMETRIC_REPRESENTATION_CONTEXT ( 3 ) GLOBAL_UNCERTAINTY_ASSIGNED_CONTEXT ( ( #239 ) ) GLOBAL_UNIT_ASSIGNED_CONTEXT ( ( #70, #306, #294 ) ) REPRESENTATION_CONTEXT ( 'NONE', 'WORKASPACE' ) );
#371 = DIRECTION ( 'NONE',  ( 1.000000000000000000, 0.0000000000000000000, 0.0000000000000000000 ) ) ;
#372 = DATE_AND_TIME ( #292, #8 ) ;
#373 = NEXT_ASSEMBLY_USAGE_OCCURRENCE ( 'NAUO1', ' ', ' ', #358, #331, $ ) ;
ENDSEC;
END-ISO-10303-21;
