ISO-10303-21;
HEADER;
FILE_DESCRIPTION (( 'STEP AP203' ),
    '1' );
FILE_NAME ('Rudus 6764055 Korotusrengas kaukolämpö 640x50_35.step',
    '2020-03-20T04:35:22',
    ( '' ),
    ( '' ),
    'SwSTEP 2.0',
    'SolidWorks 2019',
    '' );
FILE_SCHEMA (( 'CONFIG_CONTROL_DESIGN' ));
ENDSEC;

DATA;
#1 = PLANE ( 'NONE',  #10 ) ;
#2 = ORIENTED_EDGE ( 'NONE', *, *, #164, .T. ) ;
#3 = APPROVAL_PERSON_ORGANIZATION ( #365, #203, #195 ) ;
#4 = LOCAL_TIME ( 6, 35, 22.00000000000000000, #188 ) ;
#5 = PRODUCT_RELATED_PRODUCT_CATEGORY ( 'detail', '', ( #295 ) ) ;
#6 = DIRECTION ( 'NONE',  ( 1.000000000000000000, 0.0000000000000000000, 0.0000000000000000000 ) ) ;
#7 = APPROVAL_PERSON_ORGANIZATION ( #315, #280, #97 ) ;
#8 = LINE ( 'NONE', #355, #82 ) ;
#9 = DATE_AND_TIME ( #65, #264 ) ;
#10 = AXIS2_PLACEMENT_3D ( 'NONE', #114, #348, #46 ) ;
#11 = APPROVAL_PERSON_ORGANIZATION ( #162, #214, #50 ) ;
#12 = ADVANCED_BREP_SHAPE_REPRESENTATION ( '', ( #94, #361 ), #63 ) ;
#13 = PRODUCT ( 'Rudus 6764055 Korotusrengas kaukolämpö 640x50_35', 'Rudus 6764055 Korotusrengas kaukolämpö 640x50_35', '', ( #353 ) ) ;
#14 = ORIENTED_EDGE ( 'NONE', *, *, #196, .F. ) ;
#15 = COORDINATED_UNIVERSAL_TIME_OFFSET ( 2, 0, .AHEAD. ) ;
#16 = CC_DESIGN_PERSON_AND_ORGANIZATION_ASSIGNMENT ( #105, #51, ( #295 ) ) ;
#17 = ORIENTED_EDGE ( 'NONE', *, *, #61, .F. ) ;
#18 = APPROVAL_DATE_TIME ( #301, #91 ) ;
#19 = EDGE_CURVE ( 'NONE', #76, #241, #230, .T. ) ;
#20 = CC_DESIGN_SECURITY_CLASSIFICATION ( #101, ( #302 ) ) ;
#21 = CARTESIAN_POINT ( 'NONE',  ( -639.9999999999997726, 53.79411764705883314, 320.0000000000000000 ) ) ;
#22 = CALENDAR_DATE ( 2020, 20, 3 ) ;
#23 = VERTEX_POINT ( 'NONE', #89 ) ;
#24 = CARTESIAN_POINT ( 'NONE',  ( 0.0000000000000000000, 50.00000000000000000, 0.0000000000000000000 ) ) ;
#25 = CONTEXT_DEPENDENT_SHAPE_REPRESENTATION ( #282, #358 ) ;
#26 = CARTESIAN_POINT ( 'NONE',  ( -849.9999999999998863, 57.50000000000000000, -424.9999999999997726 ) ) ;
#27 = CALENDAR_DATE ( 2020, 20, 3 ) ;
#28 = CARTESIAN_POINT ( 'NONE',  ( 3.918869757271529790E-14, 50.00000000000000000, 319.9999999999999432 ) ) ;
#29 = CALENDAR_DATE ( 2020, 20, 3 ) ;
#30 = EDGE_CURVE ( 'NONE', #241, #76, #357, .T. ) ;
#31 = AXIS2_PLACEMENT_3D ( 'NONE', #83, #345, #192 ) ;
#32 = DIRECTION ( 'NONE',  ( 0.0000000000000000000, 0.0000000000000000000, -1.000000000000000000 ) ) ;
#33 = COORDINATED_UNIVERSAL_TIME_OFFSET ( 2, 0, .AHEAD. ) ;
#34 = PERSON_AND_ORGANIZATION ( #141, #297 ) ;
#35 = CC_DESIGN_PERSON_AND_ORGANIZATION_ASSIGNMENT ( #80, #229, ( #101 ) ) ;
#36 = ORIENTED_EDGE ( 'NONE', *, *, #124, .T. ) ;
#37 = CC_DESIGN_DATE_AND_TIME_ASSIGNMENT ( #249, #219, ( #265 ) ) ;
#38 = DIRECTION ( 'NONE',  ( 0.0000000000000000000, 0.0000000000000000000, 1.000000000000000000 ) ) ;
#39 = DIRECTION ( 'NONE',  ( -0.0000000000000000000, -1.000000000000000000, -0.0000000000000000000 ) ) ;
#40 = APPROVAL_PERSON_ORGANIZATION ( #168, #281, #233 ) ;
#41 = CARTESIAN_POINT ( 'NONE',  ( 0.0000000000000000000, 0.0000000000000000000, 0.0000000000000000000 ) ) ;
#42 = APPROVAL_DATE_TIME ( #159, #182 ) ;
#43 = CC_DESIGN_APPROVAL ( #280, ( #265 ) ) ;
#44 = APPLICATION_CONTEXT ( 'configuration controlled 3d designs of mechanical parts and assemblies' ) ;
#45 = APPROVAL_DATE_TIME ( #300, #364 ) ;
#46 = DIRECTION ( 'NONE',  ( 0.0000000000000000000, -0.0000000000000000000, 1.000000000000000000 ) ) ;
#47 = APPROVAL_ROLE ( '' ) ;
#48 = LOCAL_TIME ( 6, 35, 22.00000000000000000, #205 ) ;
#49 = CARTESIAN_POINT ( 'NONE',  ( 3.918869757271529790E-14, 0.0000000000000000000, 319.9999999999999432 ) ) ;
#50 = APPROVAL_ROLE ( '' ) ;
#51 = PERSON_AND_ORGANIZATION_ROLE ( 'design_owner' ) ;
#52 = PLANE ( 'NONE',  #31 ) ;
#53 = COORDINATED_UNIVERSAL_TIME_OFFSET ( 2, 0, .AHEAD. ) ;
#54 = DIRECTION ( 'NONE',  ( 0.0000000000000000000, 0.0000000000000000000, 1.000000000000000000 ) ) ;
#55 = DIRECTION ( 'NONE',  ( -0.0000000000000000000, -1.000000000000000000, -0.0000000000000000000 ) ) ;
#56 = LOCAL_TIME ( 6, 35, 22.00000000000000000, #267 ) ;
#57 = CARTESIAN_POINT ( 'NONE',  ( 5.204748896376250107E-14, 42.50000000000000000, 424.9999999999999432 ) ) ;
#58 = APPROVAL_STATUS ( 'not_yet_approved' ) ;
#59 = CC_DESIGN_DATE_AND_TIME_ASSIGNMENT ( #324, #180, ( #135 ) ) ;
#60 = VERTEX_POINT ( 'NONE', #85 ) ;
#61 = EDGE_CURVE ( 'NONE', #160, #215, #250, .T. ) ;
#62 = DIRECTION ( 'NONE',  ( -1.000000000000000000, -5.551115123125782702E-17, 2.775557561562891351E-16 ) ) ;
#63 =( GEOMETRIC_REPRESENTATION_CONTEXT ( 3 ) GLOBAL_UNCERTAINTY_ASSIGNED_CONTEXT ( ( #310 ) ) GLOBAL_UNIT_ASSIGNED_CONTEXT ( ( #117, #204, #148 ) ) REPRESENTATION_CONTEXT ( 'NONE', 'WORKASPACE' ) );
#64 = ADVANCED_FACE ( 'NONE', ( #166 ), #276, .T. ) ;
#65 = CALENDAR_DATE ( 2020, 20, 3 ) ;
#66 = APPROVAL_DATE_TIME ( #9, #280 ) ;
#67 = LOCAL_TIME ( 6, 35, 22.00000000000000000, #15 ) ;
#68 = CC_DESIGN_PERSON_AND_ORGANIZATION_ASSIGNMENT ( #266, #104, ( #213 ) ) ;
#69 = APPLICATION_CONTEXT ( 'configuration controlled 3d designs of mechanical parts and assemblies' ) ;
#70 = PERSON_AND_ORGANIZATION ( #141, #297 ) ;
#71 = DIRECTION ( 'NONE',  ( -0.0000000000000000000, -1.000000000000000000, -0.0000000000000000000 ) ) ;
#72 = DESIGN_CONTEXT ( 'detailed design', #362, 'design' ) ;
#73 = ORIENTED_EDGE ( 'NONE', *, *, #327, .F. ) ;
#74 = CALENDAR_DATE ( 2020, 20, 3 ) ;
#75 = DIRECTION ( 'NONE',  ( 0.0000000000000000000, 0.0000000000000000000, 1.000000000000000000 ) ) ;
#76 = VERTEX_POINT ( 'NONE', #238 ) ;
#77 = APPLICATION_PROTOCOL_DEFINITION ( 'international standard', 'config_control_design', 1994, #44 ) ;
#78 = ORIENTED_EDGE ( 'NONE', *, *, #30, .T. ) ;
#79 = PERSON_AND_ORGANIZATION_ROLE ( 'creator' ) ;
#80 = PERSON_AND_ORGANIZATION ( #141, #297 ) ;
#81 = COORDINATED_UNIVERSAL_TIME_OFFSET ( 2, 0, .AHEAD. ) ;
#82 = VECTOR ( 'NONE', #39, 1000.000000000000000 ) ;
#83 = CARTESIAN_POINT ( 'NONE',  ( -424.9999999999999432, 50.00000000000000000, -424.9999999999999432 ) ) ;
#84 = DATE_AND_TIME ( #107, #291 ) ;
#85 = CARTESIAN_POINT ( 'NONE',  ( 5.204748896376250107E-14, 0.0000000000000000000, 424.9999999999999432 ) ) ;
#86 = DATE_AND_TIME ( #136, #56 ) ;
#87 = CARTESIAN_POINT ( 'NONE',  ( 639.9999999999996589, 31.20588235294118462, -320.0000000000000568 ) ) ;
#88 = DATE_AND_TIME ( #336, #4 ) ;
#89 = CARTESIAN_POINT ( 'NONE',  ( 0.0000000000000000000, 0.0000000000000000000, -424.9999999999999432 ) ) ;
#90 = DIRECTION ( 'NONE',  ( 0.0000000000000000000, 0.0000000000000000000, -1.000000000000000000 ) ) ;
#91 = APPROVAL ( #138, 'UNSPECIFIED' ) ;
#92 = SECURITY_CLASSIFICATION ( '', '', #247 ) ;
#93 = DIRECTION ( 'NONE',  ( -5.551115123125781470E-17, 1.000000000000000000, 9.244463733058732095E-33 ) ) ;
#94 = MANIFOLD_SOLID_BREP ( 'Cut-Extrude1', #240 ) ;
#95 = CIRCLE ( 'NONE', #177, 319.9999999999999432 ) ;
#96 = DIRECTION ( 'NONE',  ( 0.0000000000000000000, 0.0000000000000000000, 1.000000000000000000 ) ) ;
#97 = APPROVAL_ROLE ( '' ) ;
#98 = SHAPE_REPRESENTATION ( 'Rudus 6764055 Korotusrengas kaukolämpö 640x50_35', ( #257, #169 ), #181 ) ;
#99 = CC_DESIGN_PERSON_AND_ORGANIZATION_ASSIGNMENT ( #34, #278, ( #302 ) ) ;
#100 = CC_DESIGN_SECURITY_CLASSIFICATION ( #92, ( #213 ) ) ;
#101 = SECURITY_CLASSIFICATION ( '', '', #275 ) ;
#102 = EDGE_CURVE ( 'NONE', #191, #215, #8, .T. ) ;
#103 = AXIS2_PLACEMENT_3D ( 'NONE', #199, #152, #311 ) ;
#104 = PERSON_AND_ORGANIZATION_ROLE ( 'creator' ) ;
#105 = PERSON_AND_ORGANIZATION ( #141, #297 ) ;
#106 = CARTESIAN_POINT ( 'NONE',  ( 3.918869757271529790E-14, 42.50000000000000000, 319.9999999999999432 ) ) ;
#107 = CALENDAR_DATE ( 2020, 20, 3 ) ;
#108 = APPROVAL_DATE_TIME ( #86, #203 ) ;
#109 = EDGE_LOOP ( 'NONE', ( #253, #366 ) ) ;
#110 = DIRECTION ( 'NONE',  ( -0.0000000000000000000, -1.000000000000000000, -0.0000000000000000000 ) ) ;
#111 = COORDINATED_UNIVERSAL_TIME_OFFSET ( 2, 0, .AHEAD. ) ;
#112 = CARTESIAN_POINT ( 'NONE',  ( 0.0000000000000000000, 42.50000000000000000, -424.9999999999999432 ) ) ;
#113 = LINE ( 'NONE', #372, #312 ) ;
#114 = CARTESIAN_POINT ( 'NONE',  ( 0.0000000000000000000, 0.0000000000000000000, 0.0000000000000000000 ) ) ;
#115 = ADVANCED_FACE ( 'NONE', ( #263 ), #326, .T. ) ;
#116 = ORIENTED_EDGE ( 'NONE', *, *, #243, .F. ) ;
#117 =( LENGTH_UNIT ( ) NAMED_UNIT ( * ) SI_UNIT ( .MILLI., .METRE. ) );
#118 = DIRECTION ( 'NONE',  ( -0.0000000000000000000, -1.000000000000000000, -0.0000000000000000000 ) ) ;
#119 = APPROVAL_STATUS ( 'not_yet_approved' ) ;
#120 = VECTOR ( 'NONE', #110, 1000.000000000000000 ) ;
#121 = PERSON ( 'NAUO-PER1', 'UNSPECIFIED', 'UNSPECIFIED', ('UNSPECIFIED'), ('UNSPECIFIED'), ('UNSPECIFIED') ) ;
#122 = PRODUCT_RELATED_PRODUCT_CATEGORY ( 'detail', '', ( #13 ) ) ;
#123 = DIRECTION ( 'NONE',  ( 1.000000000000000000, 0.0000000000000000000, 0.0000000000000000000 ) ) ;
#124 = EDGE_CURVE ( 'NONE', #60, #23, #130, .T. ) ;
#125 = ADVANCED_FACE ( 'NONE', ( #161, #223 ), #52, .F. ) ;
#126 = AXIS2_PLACEMENT_3D ( 'NONE', #200, #220, #75 ) ;
#127 = LOCAL_TIME ( 6, 35, 22.00000000000000000, #304 ) ;
#128 = PERSON_AND_ORGANIZATION ( #141, #297 ) ;
#129 = PRODUCT_DEFINITION_SHAPE ( 'NONE', 'NONE',  #265 ) ;
#130 = CIRCLE ( 'NONE', #103, 424.9999999999999432 ) ;
#131 = CC_DESIGN_SECURITY_CLASSIFICATION ( #287, ( #373 ) ) ;
#132 = DATE_AND_TIME ( #305, #48 ) ;
#133 = ORIENTED_EDGE ( 'NONE', *, *, #327, .T. ) ;
#134 = CARTESIAN_POINT ( 'NONE',  ( 5.204748896376250107E-14, 42.50000000000000000, 424.9999999999999432 ) ) ;
#135 = PRODUCT_DEFINITION ( 'UNKNOWN', '', #302, #332 ) ;
#136 = CALENDAR_DATE ( 2020, 20, 3 ) ;
#137 = DIRECTION ( 'NONE',  ( 0.0000000000000000000, 0.0000000000000000000, 1.000000000000000000 ) ) ;
#138 = APPROVAL_STATUS ( 'not_yet_approved' ) ;
#139 = DIRECTION ( 'NONE',  ( -0.0000000000000000000, -1.000000000000000000, -0.0000000000000000000 ) ) ;
#140 = APPROVAL_DATE_TIME ( #341, #214 ) ;
#141 = PERSON ( 'UNSPECIFIED', 'UNSPECIFIED', 'UNSPECIFIED', ('UNSPECIFIED'), ('UNSPECIFIED'), ('UNSPECIFIED') ) ;
#142 = LINE ( 'NONE', #251, #120 ) ;
#143 = CALENDAR_DATE ( 2020, 20, 3 ) ;
#144 = EDGE_CURVE ( 'NONE', #76, #23, #113, .T. ) ;
#145 = ORIENTED_EDGE ( 'NONE', *, *, #30, .F. ) ;
#146 = EDGE_LOOP ( 'NONE', ( #172, #78, #268, #133 ) ) ;
#147 = CC_DESIGN_PERSON_AND_ORGANIZATION_ASSIGNMENT ( #151, #185, ( #92 ) ) ;
#148 =( NAMED_UNIT ( * ) SI_UNIT ( $, .STERADIAN. ) SOLID_ANGLE_UNIT ( ) );
#149 = AXIS2_PLACEMENT_3D ( 'NONE', #24, #309, #90 ) ;
#150 =( NAMED_UNIT ( * ) SI_UNIT ( $, .STERADIAN. ) SOLID_ANGLE_UNIT ( ) );
#151 = PERSON_AND_ORGANIZATION ( #141, #297 ) ;
#152 = DIRECTION ( 'NONE',  ( 0.0000000000000000000, 1.000000000000000000, 0.0000000000000000000 ) ) ;
#153 = PERSON_AND_ORGANIZATION ( #141, #297 ) ;
#154 = CC_DESIGN_PERSON_AND_ORGANIZATION_ASSIGNMENT ( #270, #225, ( #135 ) ) ;
#155 = EDGE_LOOP ( 'NONE', ( #334, #256, #116, #299 ) ) ;
#156 = CARTESIAN_POINT ( 'NONE',  ( 0.0000000000000000000, 42.50000000000000000, -319.9999999999999432 ) ) ;
#157 = APPROVAL_PERSON_ORGANIZATION ( #273, #182, #47 ) ;
#158 = CC_DESIGN_APPROVAL ( #91, ( #135 ) ) ;
#159 = DATE_AND_TIME ( #27, #290 ) ;
#160 = VERTEX_POINT ( 'NONE', #49 ) ;
#161 = FACE_BOUND ( 'NONE', #338, .T. ) ;
#162 = PERSON_AND_ORGANIZATION ( #121, #201 ) ;
#163 = APPLICATION_PROTOCOL_DEFINITION ( 'international standard', 'config_control_design', 1994, #69 ) ;
#164 = EDGE_CURVE ( 'NONE', #329, #191, #325, .T. ) ;
#165 = CARTESIAN_POINT ( 'NONE',  ( 3.918869757271529790E-14, 42.50000000000000000, 319.9999999999999432 ) ) ;
#166 = FACE_OUTER_BOUND ( 'NONE', #146, .T. ) ;
#167 = CARTESIAN_POINT ( 'NONE',  ( 0.0000000000000000000, 0.0000000000000000000, -319.9999999999999432 ) ) ;
#168 = PERSON_AND_ORGANIZATION ( #141, #297 ) ;
#169 = AXIS2_PLACEMENT_3D ( 'NONE', #239, #93, #62 ) ;
#170 = CARTESIAN_POINT ( 'NONE',  ( -849.9999999999998863, 57.50000000000000000, 425.0000000000001137 ) ) ;
#171 = DATE_AND_TIME ( #143, #258 ) ;
#172 = ORIENTED_EDGE ( 'NONE', *, *, #322, .F. ) ;
#173 =( LENGTH_UNIT ( ) NAMED_UNIT ( * ) SI_UNIT ( .MILLI., .METRE. ) );
#174 = LOCAL_TIME ( 6, 35, 22.00000000000000000, #111 ) ;
#175 = APPLICATION_CONTEXT ( 'configuration controlled 3d designs of mechanical parts and assemblies' ) ;
#176 = CARTESIAN_POINT ( 'NONE',  ( 0.0000000000000000000, 0.0000000000000000000, 0.0000000000000000000 ) ) ;
#177 = AXIS2_PLACEMENT_3D ( 'NONE', #269, #274, #137 ) ;
#178 = APPROVAL_PERSON_ORGANIZATION ( #128, #364, #360 ) ;
#179 = SHAPE_REPRESENTATION_RELATIONSHIP ( 'NONE' , 'NONE' ,  #349, #12 ) ;
#180 = DATE_TIME_ROLE ( 'creation_date' ) ;
#181 =( GEOMETRIC_REPRESENTATION_CONTEXT ( 3 ) GLOBAL_UNCERTAINTY_ASSIGNED_CONTEXT ( ( #254 ) ) GLOBAL_UNIT_ASSIGNED_CONTEXT ( ( #173, #260, #150 ) ) REPRESENTATION_CONTEXT ( 'NONE', 'WORKASPACE' ) );
#182 = APPROVAL ( #216, 'UNSPECIFIED' ) ;
#183 = CALENDAR_DATE ( 2020, 20, 3 ) ;
#184 = EDGE_LOOP ( 'NONE', ( #14, #352, #236, #17 ) ) ;
#185 = PERSON_AND_ORGANIZATION_ROLE ( 'classification_officer' ) ;
#186 = ORIENTED_EDGE ( 'NONE', *, *, #19, .F. ) ;
#187 = FACE_BOUND ( 'NONE', #109, .T. ) ;
#188 = COORDINATED_UNIVERSAL_TIME_OFFSET ( 2, 0, .AHEAD. ) ;
#189 = LOCAL_TIME ( 6, 35, 22.00000000000000000, #330 ) ;
#190 = COORDINATED_UNIVERSAL_TIME_OFFSET ( 2, 0, .AHEAD. ) ;
#191 = VERTEX_POINT ( 'NONE', #331 ) ;
#192 = DIRECTION ( 'NONE',  ( 0.9998443270161029295, -0.01764431165322534814, 0.0000000000000000000 ) ) ;
#193 = SHAPE_DEFINITION_REPRESENTATION ( #211, #349 ) ;
#194 = DIRECTION ( 'NONE',  ( 0.0000000000000000000, 1.000000000000000000, 0.0000000000000000000 ) ) ;
#195 = APPROVAL_ROLE ( '' ) ;
#196 = EDGE_CURVE ( 'NONE', #329, #160, #303, .T. ) ;
#197 = FACE_OUTER_BOUND ( 'NONE', #155, .T. ) ;
#198 = PERSON_AND_ORGANIZATION_ROLE ( 'classification_officer' ) ;
#199 = CARTESIAN_POINT ( 'NONE',  ( 0.0000000000000000000, 0.0000000000000000000, 0.0000000000000000000 ) ) ;
#200 = CARTESIAN_POINT ( 'NONE',  ( 0.0000000000000000000, 0.0000000000000000000, 0.0000000000000000000 ) ) ;
#201 = ORGANIZATION ( 'NAUO-ORG1', 'UNSPECIFIED', 'UNSPECIFIED' ) ;
#202 = CC_DESIGN_PERSON_AND_ORGANIZATION_ASSIGNMENT ( #153, #283, ( #302 ) ) ;
#203 = APPROVAL ( #337, 'UNSPECIFIED' ) ;
#204 =( NAMED_UNIT ( * ) PLANE_ANGLE_UNIT ( ) SI_UNIT ( $, .RADIAN. ) );
#205 = COORDINATED_UNIVERSAL_TIME_OFFSET ( 2, 0, .AHEAD. ) ;
#206 = DIRECTION ( 'NONE',  ( 0.0000000000000000000, 0.0000000000000000000, -1.000000000000000000 ) ) ;
#207 = LOCAL_TIME ( 6, 35, 22.00000000000000000, #190 ) ;
#208 = DATE_TIME_ROLE ( 'classification_date' ) ;
#209 = CC_DESIGN_APPROVAL ( #281, ( #101 ) ) ;
#210 = DIRECTION ( 'NONE',  ( 0.0000000000000000000, 0.0000000000000000000, -1.000000000000000000 ) ) ;
#211 = PRODUCT_DEFINITION_SHAPE ( 'NONE', 'NONE',  #135 ) ;
#212 = CARTESIAN_POINT ( 'NONE',  ( 0.0000000000000000000, 50.00000000000000000, 0.0000000000000000000 ) ) ;
#213 = PRODUCT_DEFINITION_FORMATION_WITH_SPECIFIED_SOURCE ( 'ANY', '', #13, .NOT_KNOWN. ) ;
#214 = APPROVAL ( #252, 'UNKNOWN' ) ;
#215 = VERTEX_POINT ( 'NONE', #167 ) ;
#216 = APPROVAL_STATUS ( 'not_yet_approved' ) ;
#217 = EDGE_CURVE ( 'NONE', #191, #329, #226, .T. ) ;
#218 = PERSON_AND_ORGANIZATION ( #141, #297 ) ;
#219 = DATE_TIME_ROLE ( 'creation_date' ) ;
#220 = DIRECTION ( 'NONE',  ( 0.0000000000000000000, 1.000000000000000000, 0.0000000000000000000 ) ) ;
#221 = SECURITY_CLASSIFICATION_LEVEL ( 'unclassified' ) ;
#222 = SHAPE_DEFINITION_REPRESENTATION ( #129, #98 ) ;
#223 = FACE_OUTER_BOUND ( 'NONE', #306, .T. ) ;
#224 = APPROVAL_DATE_TIME ( #171, #281 ) ;
#225 = PERSON_AND_ORGANIZATION_ROLE ( 'creator' ) ;
#226 =( BOUNDED_CURVE ( )  B_SPLINE_CURVE ( 3, ( #271, #87, #307, #106 ),
 .UNSPECIFIED., .F., .T. ) 
 B_SPLINE_CURVE_WITH_KNOTS ( ( 4, 4 ),
 ( 4.712388980384689674, 7.853981633974482790 ),
 .UNSPECIFIED. ) 
 CURVE ( )  GEOMETRIC_REPRESENTATION_ITEM ( )  RATIONAL_B_SPLINE_CURVE ( ( 1.000000000000000000, 0.3333333333333333703, 0.3333333333333333703, 1.000000000000000000 ) ) 
 REPRESENTATION_ITEM ( '' )  );
#227 = CARTESIAN_POINT ( 'NONE',  ( 5.204748896376250107E-14, 42.50000000000000000, 424.9999999999999432 ) ) ;
#228 = CARTESIAN_POINT ( 'NONE',  ( -639.9999999999998863, 53.79411764705883314, -319.9999999999998295 ) ) ;
#229 = PERSON_AND_ORGANIZATION_ROLE ( 'classification_officer' ) ;
#230 =( BOUNDED_CURVE ( )  B_SPLINE_CURVE ( 3, ( #112, #231, #347, #227 ),
 .UNSPECIFIED., .F., .T. ) 
 B_SPLINE_CURVE_WITH_KNOTS ( ( 4, 4 ),
 ( 4.712388980384689674, 7.853981633974482790 ),
 .UNSPECIFIED. ) 
 CURVE ( )  GEOMETRIC_REPRESENTATION_ITEM ( )  RATIONAL_B_SPLINE_CURVE ( ( 1.000000000000000000, 0.3333333333333333703, 0.3333333333333333703, 1.000000000000000000 ) ) 
 REPRESENTATION_ITEM ( '' )  );
#231 = CARTESIAN_POINT ( 'NONE',  ( 849.9999999999998863, 27.50000000000000711, -425.0000000000001137 ) ) ;
#232 = FACE_OUTER_BOUND ( 'NONE', #369, .T. ) ;
#233 = APPROVAL_ROLE ( '' ) ;
#234 = ORIENTED_EDGE ( 'NONE', *, *, #124, .F. ) ;
#235 = CC_DESIGN_PERSON_AND_ORGANIZATION_ASSIGNMENT ( #162, #198, ( #287 ) ) ;
#236 = ORIENTED_EDGE ( 'NONE', *, *, #102, .T. ) ;
#237 = CC_DESIGN_APPROVAL ( #182, ( #92 ) ) ;
#238 = CARTESIAN_POINT ( 'NONE',  ( 0.0000000000000000000, 42.50000000000000000, -424.9999999999999432 ) ) ;
#239 = CARTESIAN_POINT ( 'NONE',  ( 0.0000000000000000000, -161.7731247645711790, 0.0000000000000000000 ) ) ;
#240 = CLOSED_SHELL ( 'NONE', ( #296, #115, #64, #342, #313, #125 ) ) ;
#241 = VERTEX_POINT ( 'NONE', #134 ) ;
#242 = APPROVAL_STATUS ( 'not_yet_approved' ) ;
#243 = EDGE_CURVE ( 'NONE', #215, #160, #95, .T. ) ;
#244 = CC_DESIGN_APPROVAL ( #203, ( #213 ) ) ;
#245 = APPROVAL_ROLE ( '' ) ;
#246 = DIRECTION ( 'NONE',  ( -0.0000000000000000000, -1.000000000000000000, -0.0000000000000000000 ) ) ;
#247 = SECURITY_CLASSIFICATION_LEVEL ( 'unclassified' ) ;
#248 = FACE_OUTER_BOUND ( 'NONE', #184, .T. ) ;
#249 = DATE_AND_TIME ( #22, #207 ) ;
#250 = CIRCLE ( 'NONE', #351, 319.9999999999999432 ) ;
#251 = CARTESIAN_POINT ( 'NONE',  ( 5.204748896376250107E-14, 50.00000000000000000, 424.9999999999999432 ) ) ;
#252 = APPROVAL_STATUS ( 'not_yet_approved' ) ;
#253 = ORIENTED_EDGE ( 'NONE', *, *, #243, .T. ) ;
#254 = UNCERTAINTY_MEASURE_WITH_UNIT (LENGTH_MEASURE( 1.000000000000000082E-05 ), #173, 'distance_accuracy_value', 'NONE');
#255 = CC_DESIGN_PERSON_AND_ORGANIZATION_ASSIGNMENT ( #333, #294, ( #213 ) ) ;
#256 = ORIENTED_EDGE ( 'NONE', *, *, #196, .T. ) ;
#257 = AXIS2_PLACEMENT_3D ( 'NONE', #356, #38, #6 ) ;
#258 = LOCAL_TIME ( 6, 35, 22.00000000000000000, #53 ) ;
#259 = AXIS2_PLACEMENT_3D ( 'NONE', #212, #71, #210 ) ;
#260 =( NAMED_UNIT ( * ) PLANE_ANGLE_UNIT ( ) SI_UNIT ( $, .RADIAN. ) );
#261 = CARTESIAN_POINT ( 'NONE',  ( 0.0000000000000000000, 50.00000000000000000, 0.0000000000000000000 ) ) ;
#262 = CC_DESIGN_DATE_AND_TIME_ASSIGNMENT ( #84, #308, ( #101 ) ) ;
#263 = FACE_OUTER_BOUND ( 'NONE', #350, .T. ) ;
#264 = LOCAL_TIME ( 6, 35, 22.00000000000000000, #318 ) ;
#265 = PRODUCT_DEFINITION ( 'UNKNOWN', '', #213, #72 ) ;
#266 = PERSON_AND_ORGANIZATION ( #141, #297 ) ;
#267 = COORDINATED_UNIVERSAL_TIME_OFFSET ( 2, 0, .AHEAD. ) ;
#268 = ORIENTED_EDGE ( 'NONE', *, *, #144, .T. ) ;
#269 = CARTESIAN_POINT ( 'NONE',  ( 0.0000000000000000000, 0.0000000000000000000, 0.0000000000000000000 ) ) ;
#270 = PERSON_AND_ORGANIZATION ( #141, #297 ) ;
#271 = CARTESIAN_POINT ( 'NONE',  ( 0.0000000000000000000, 42.50000000000000000, -319.9999999999999432 ) ) ;
#272 = DATE_TIME_ROLE ( 'classification_date' ) ;
#273 = PERSON_AND_ORGANIZATION ( #141, #297 ) ;
#274 = DIRECTION ( 'NONE',  ( 0.0000000000000000000, 1.000000000000000000, 0.0000000000000000000 ) ) ;
#275 = SECURITY_CLASSIFICATION_LEVEL ( 'unclassified' ) ;
#276 = CYLINDRICAL_SURFACE ( 'NONE', #286, 424.9999999999999432 ) ;
#277 = CARTESIAN_POINT ( 'NONE',  ( 0.0000000000000000000, 50.00000000000000000, 0.0000000000000000000 ) ) ;
#278 = PERSON_AND_ORGANIZATION_ROLE ( 'design_supplier' ) ;
#279 = APPROVAL_PERSON_ORGANIZATION ( #70, #91, #245 ) ;
#280 = APPROVAL ( #119, 'UNSPECIFIED' ) ;
#281 = APPROVAL ( #58, 'UNSPECIFIED' ) ;
#282 =( REPRESENTATION_RELATIONSHIP ('NONE','NONE', #98, #349 ) REPRESENTATION_RELATIONSHIP_WITH_TRANSFORMATION ( #346 )SHAPE_REPRESENTATION_RELATIONSHIP( ) );
#283 = PERSON_AND_ORGANIZATION_ROLE ( 'creator' ) ;
#284 = ORIENTED_EDGE ( 'NONE', *, *, #19, .T. ) ;
#285 = ORIENTED_EDGE ( 'NONE', *, *, #322, .T. ) ;
#286 = AXIS2_PLACEMENT_3D ( 'NONE', #261, #118, #206 ) ;
#287 = SECURITY_CLASSIFICATION ( '', '', #221 ) ;
#288 = APPLICATION_PROTOCOL_DEFINITION ( 'international standard', 'config_control_design', 1994, #362 ) ;
#289 = DIRECTION ( 'NONE',  ( 0.0000000000000000000, 0.0000000000000000000, 1.000000000000000000 ) ) ;
#290 = LOCAL_TIME ( 6, 35, 22.00000000000000000, #81 ) ;
#291 = LOCAL_TIME ( 6, 35, 22.00000000000000000, #33 ) ;
#292 = CC_DESIGN_DATE_AND_TIME_ASSIGNMENT ( #88, #272, ( #287 ) ) ;
#293 = PERSON_AND_ORGANIZATION_ROLE ( 'design_owner' ) ;
#294 = PERSON_AND_ORGANIZATION_ROLE ( 'design_supplier' ) ;
#295 = PRODUCT ( 'kaivo-osa-korotusrengas_Kaukol„mp”', 'kaivo-osa-korotusrengas_Kaukol„mp”', '', ( #368 ) ) ;
#296 = ADVANCED_FACE ( 'NONE', ( #197 ), #367, .F. ) ;
#297 = ORGANIZATION ( 'UNSPECIFIED', 'UNSPECIFIED', '' ) ;
#298 = ORIENTED_EDGE ( 'NONE', *, *, #144, .F. ) ;
#299 = ORIENTED_EDGE ( 'NONE', *, *, #102, .F. ) ;
#300 = DATE_AND_TIME ( #74, #189 ) ;
#301 = DATE_AND_TIME ( #183, #174 ) ;
#302 = PRODUCT_DEFINITION_FORMATION_WITH_SPECIFIED_SOURCE ( 'ANY', '', #295, .NOT_KNOWN. ) ;
#303 = LINE ( 'NONE', #28, #354 ) ;
#304 = COORDINATED_UNIVERSAL_TIME_OFFSET ( 2, 0, .AHEAD. ) ;
#305 = CALENDAR_DATE ( 2020, 20, 3 ) ;
#306 = EDGE_LOOP ( 'NONE', ( #186, #145 ) ) ;
#307 = CARTESIAN_POINT ( 'NONE',  ( 639.9999999999997726, 31.20588235294118462, 319.9999999999998863 ) ) ;
#308 = DATE_TIME_ROLE ( 'classification_date' ) ;
#309 = DIRECTION ( 'NONE',  ( -0.0000000000000000000, -1.000000000000000000, -0.0000000000000000000 ) ) ;
#310 = UNCERTAINTY_MEASURE_WITH_UNIT (LENGTH_MEASURE( 1.000000000000000082E-05 ), #117, 'distance_accuracy_value', 'NONE');
#311 = DIRECTION ( 'NONE',  ( 0.0000000000000000000, 0.0000000000000000000, 1.000000000000000000 ) ) ;
#312 = VECTOR ( 'NONE', #55, 1000.000000000000000 ) ;
#313 = ADVANCED_FACE ( 'NONE', ( #248 ), #335, .F. ) ;
#314 = ORIENTED_EDGE ( 'NONE', *, *, #217, .T. ) ;
#315 = PERSON_AND_ORGANIZATION ( #141, #297 ) ;
#316 = AXIS2_PLACEMENT_3D ( 'NONE', #277, #246, #32 ) ;
#317 = DIRECTION ( 'NONE',  ( 1.000000000000000000, 0.0000000000000000000, 0.0000000000000000000 ) ) ;
#318 = COORDINATED_UNIVERSAL_TIME_OFFSET ( 2, 0, .AHEAD. ) ;
#319 = CC_DESIGN_DATE_AND_TIME_ASSIGNMENT ( #132, #208, ( #92 ) ) ;
#320 = APPLICATION_PROTOCOL_DEFINITION ( 'international standard', 'config_control_design', 1994, #175 ) ;
#321 = CC_DESIGN_PERSON_AND_ORGANIZATION_ASSIGNMENT ( #323, #293, ( #13 ) ) ;
#322 = EDGE_CURVE ( 'NONE', #241, #60, #142, .T. ) ;
#323 = PERSON_AND_ORGANIZATION ( #141, #297 ) ;
#324 = DATE_AND_TIME ( #344, #67 ) ;
#325 =( BOUNDED_CURVE ( )  B_SPLINE_CURVE ( 3, ( #165, #21, #228, #156 ),
 .UNSPECIFIED., .F., .T. ) 
 B_SPLINE_CURVE_WITH_KNOTS ( ( 4, 4 ),
 ( 1.570796326794896558, 4.712388980384689674 ),
 .UNSPECIFIED. ) 
 CURVE ( )  GEOMETRIC_REPRESENTATION_ITEM ( )  RATIONAL_B_SPLINE_CURVE ( ( 1.000000000000000000, 0.3333333333333333703, 0.3333333333333333703, 1.000000000000000000 ) ) 
 REPRESENTATION_ITEM ( '' )  );
#326 = CYLINDRICAL_SURFACE ( 'NONE', #259, 424.9999999999999432 ) ;
#327 = EDGE_CURVE ( 'NONE', #23, #60, #359, .T. ) ;
#328 = AXIS2_PLACEMENT_3D ( 'NONE', #41, #289, #123 ) ;
#329 = VERTEX_POINT ( 'NONE', #340 ) ;
#330 = COORDINATED_UNIVERSAL_TIME_OFFSET ( 2, 0, .AHEAD. ) ;
#331 = CARTESIAN_POINT ( 'NONE',  ( 0.0000000000000000000, 42.50000000000000000, -319.9999999999999432 ) ) ;
#332 = DESIGN_CONTEXT ( 'detailed design', #69, 'design' ) ;
#333 = PERSON_AND_ORGANIZATION ( #141, #297 ) ;
#334 = ORIENTED_EDGE ( 'NONE', *, *, #164, .F. ) ;
#335 = CYLINDRICAL_SURFACE ( 'NONE', #316, 319.9999999999999432 ) ;
#336 = CALENDAR_DATE ( 2020, 20, 3 ) ;
#337 = APPROVAL_STATUS ( 'not_yet_approved' ) ;
#338 = EDGE_LOOP ( 'NONE', ( #314, #2 ) ) ;
#339 = CC_DESIGN_APPROVAL ( #364, ( #302 ) ) ;
#340 = CARTESIAN_POINT ( 'NONE',  ( 3.918869757271529790E-14, 42.50000000000000000, 319.9999999999999432 ) ) ;
#341 = DATE_AND_TIME ( #29, #127 ) ;
#342 = ADVANCED_FACE ( 'NONE', ( #232, #187 ), #1, .F. ) ;
#343 = CARTESIAN_POINT ( 'NONE',  ( 0.0000000000000000000, 0.0000000000000000000, 0.0000000000000000000 ) ) ;
#344 = CALENDAR_DATE ( 2020, 20, 3 ) ;
#345 = DIRECTION ( 'NONE',  ( -0.01764431165322534814, -0.9998443270161029295, 0.0000000000000000000 ) ) ;
#346 = ITEM_DEFINED_TRANSFORMATION ( 'NONE', 'NONE', #169,  #361 ) ;
#347 = CARTESIAN_POINT ( 'NONE',  ( 849.9999999999998863, 27.50000000000000711, 424.9999999999999432 ) ) ;
#348 = DIRECTION ( 'NONE',  ( 0.0000000000000000000, 1.000000000000000000, 0.0000000000000000000 ) ) ;
#349 = SHAPE_REPRESENTATION ( 'kaivo-osa-korotusrengas_Kaukol„mp”', ( #361 ), #63 ) ;
#350 = EDGE_LOOP ( 'NONE', ( #284, #285, #36, #298 ) ) ;
#351 = AXIS2_PLACEMENT_3D ( 'NONE', #343, #194, #54 ) ;
#352 = ORIENTED_EDGE ( 'NONE', *, *, #217, .F. ) ;
#353 = MECHANICAL_CONTEXT ( 'NONE', #175, 'mechanical' ) ;
#354 = VECTOR ( 'NONE', #139, 1000.000000000000000 ) ;
#355 = CARTESIAN_POINT ( 'NONE',  ( 0.0000000000000000000, 50.00000000000000000, -319.9999999999999432 ) ) ;
#356 = CARTESIAN_POINT ( 'NONE',  ( 0.0000000000000000000, 0.0000000000000000000, 0.0000000000000000000 ) ) ;
#357 =( BOUNDED_CURVE ( )  B_SPLINE_CURVE ( 3, ( #57, #170, #26, #371 ),
 .UNSPECIFIED., .F., .T. ) 
 B_SPLINE_CURVE_WITH_KNOTS ( ( 4, 4 ),
 ( 1.570796326794896558, 4.712388980384689674 ),
 .UNSPECIFIED. ) 
 CURVE ( )  GEOMETRIC_REPRESENTATION_ITEM ( )  RATIONAL_B_SPLINE_CURVE ( ( 1.000000000000000000, 0.3333333333333333703, 0.3333333333333333703, 1.000000000000000000 ) ) 
 REPRESENTATION_ITEM ( '' )  );
#358 = PRODUCT_DEFINITION_SHAPE ( 'NONE', 'NONE',  #373 ) ;
#359 = CIRCLE ( 'NONE', #126, 424.9999999999999432 ) ;
#360 = APPROVAL_ROLE ( '' ) ;
#361 = AXIS2_PLACEMENT_3D ( 'NONE', #176, #96, #317 ) ;
#362 = APPLICATION_CONTEXT ( 'configuration controlled 3d designs of mechanical parts and assemblies' ) ;
#363 = CC_DESIGN_APPROVAL ( #214, ( #287 ) ) ;
#364 = APPROVAL ( #242, 'UNSPECIFIED' ) ;
#365 = PERSON_AND_ORGANIZATION ( #141, #297 ) ;
#366 = ORIENTED_EDGE ( 'NONE', *, *, #61, .T. ) ;
#367 = CYLINDRICAL_SURFACE ( 'NONE', #149, 319.9999999999999432 ) ;
#368 = MECHANICAL_CONTEXT ( 'NONE', #44, 'mechanical' ) ;
#369 = EDGE_LOOP ( 'NONE', ( #73, #234 ) ) ;
#370 = CC_DESIGN_PERSON_AND_ORGANIZATION_ASSIGNMENT ( #218, #79, ( #265 ) ) ;
#371 = CARTESIAN_POINT ( 'NONE',  ( 0.0000000000000000000, 42.50000000000000000, -424.9999999999999432 ) ) ;
#372 = CARTESIAN_POINT ( 'NONE',  ( 0.0000000000000000000, 50.00000000000000000, -424.9999999999999432 ) ) ;
#373 = NEXT_ASSEMBLY_USAGE_OCCURRENCE ( 'NAUO1', ' ', ' ', #265, #135, $ ) ;
ENDSEC;
END-ISO-10303-21;
