ISO-10303-21;
HEADER;
FILE_DESCRIPTION (( 'STEP AP203' ),
    '1' );
FILE_NAME ('Rudus 6764050 Korotusrengas kaukolämpö 640x50.step',
    '2020-03-16T06:35:12',
    ( '' ),
    ( '' ),
    'SwSTEP 2.0',
    'SolidWorks 2019',
    '' );
FILE_SCHEMA (( 'CONFIG_CONTROL_DESIGN' ));
ENDSEC;

DATA;
#1 = MANIFOLD_SOLID_BREP ( 'Boss-Extrude-rengas', #351 ) ;
#2 = CARTESIAN_POINT ( 'NONE',  ( 5.204748896376250107E-14, 50.00000000000000000, 424.9999999999999432 ) ) ;
#3 = ORIENTED_EDGE ( 'NONE', *, *, #101, .F. ) ;
#4 =( NAMED_UNIT ( * ) PLANE_ANGLE_UNIT ( ) SI_UNIT ( $, .RADIAN. ) );
#5 = ORIENTED_EDGE ( 'NONE', *, *, #69, .T. ) ;
#6 = VERTEX_POINT ( 'NONE', #354 ) ;
#7 = LOCAL_TIME ( 8, 35, 12.00000000000000000, #202 ) ;
#8 = APPROVAL ( #51, 'UNSPECIFIED' ) ;
#9 = ORIENTED_EDGE ( 'NONE', *, *, #50, .F. ) ;
#10 = DIRECTION ( 'NONE',  ( 0.0000000000000000000, 0.0000000000000000000, -1.000000000000000000 ) ) ;
#11 = PERSON_AND_ORGANIZATION ( #356, #331 ) ;
#12 = VERTEX_POINT ( 'NONE', #320 ) ;
#13 = DIRECTION ( 'NONE',  ( -1.000000000000000000, -5.551115123125782702E-17, 2.775557561562891351E-16 ) ) ;
#14 = PRODUCT_DEFINITION_SHAPE ( 'NONE', 'NONE',  #373 ) ;
#15 = DATE_AND_TIME ( #184, #213 ) ;
#16 =( NAMED_UNIT ( * ) PLANE_ANGLE_UNIT ( ) SI_UNIT ( $, .RADIAN. ) );
#17 = APPROVAL_PERSON_ORGANIZATION ( #302, #42, #82 ) ;
#18 = PERSON_AND_ORGANIZATION_ROLE ( 'creator' ) ;
#19 = PRODUCT ( 'kaivo-osa-korotusrengas_Kaukol„mp”', 'kaivo-osa-korotusrengas_Kaukol„mp”', '', ( #146 ) ) ;
#20 = ORIENTED_EDGE ( 'NONE', *, *, #47, .T. ) ;
#21 = AXIS2_PLACEMENT_3D ( 'NONE', #258, #128, #31 ) ;
#22 = CALENDAR_DATE ( 2020, 16, 3 ) ;
#23 = SHAPE_DEFINITION_REPRESENTATION ( #324, #41 ) ;
#24 = PERSON_AND_ORGANIZATION_ROLE ( 'design_owner' ) ;
#25 = APPLICATION_PROTOCOL_DEFINITION ( 'international standard', 'config_control_design', 1994, #72 ) ;
#26 = DIRECTION ( 'NONE',  ( -0.0000000000000000000, -1.000000000000000000, -0.0000000000000000000 ) ) ;
#27 = DIRECTION ( 'NONE',  ( 0.0000000000000000000, 0.0000000000000000000, -1.000000000000000000 ) ) ;
#28 = DATE_TIME_ROLE ( 'creation_date' ) ;
#29 = APPROVAL_STATUS ( 'not_yet_approved' ) ;
#30 = CARTESIAN_POINT ( 'NONE',  ( 0.0000000000000000000, 50.00000000000000000, 0.0000000000000000000 ) ) ;
#31 = DIRECTION ( 'NONE',  ( 0.0000000000000000000, 0.0000000000000000000, -1.000000000000000000 ) ) ;
#32 = CALENDAR_DATE ( 2020, 16, 3 ) ;
#33 = DIRECTION ( 'NONE',  ( 0.0000000000000000000, 1.000000000000000000, 0.0000000000000000000 ) ) ;
#34 = EDGE_CURVE ( 'NONE', #145, #314, #46, .T. ) ;
#35 = CYLINDRICAL_SURFACE ( 'NONE', #21, 424.9999999999999432 ) ;
#36 = CARTESIAN_POINT ( 'NONE',  ( 0.0000000000000000000, 50.00000000000000000, 0.0000000000000000000 ) ) ;
#37 = CARTESIAN_POINT ( 'NONE',  ( 0.0000000000000000000, 50.00000000000000000, -424.9999999999999432 ) ) ;
#38 = PERSON_AND_ORGANIZATION_ROLE ( 'classification_officer' ) ;
#39 = FACE_OUTER_BOUND ( 'NONE', #178, .T. ) ;
#40 = AXIS2_PLACEMENT_3D ( 'NONE', #108, #59, #27 ) ;
#41 = SHAPE_REPRESENTATION ( 'kaivo-osa-korotusrengas_Kaukol„mp”', ( #189 ), #344 ) ;
#42 = APPROVAL ( #333, 'UNSPECIFIED' ) ;
#43 = COORDINATED_UNIVERSAL_TIME_OFFSET ( 2, 0, .AHEAD. ) ;
#44 = CARTESIAN_POINT ( 'NONE',  ( 0.0000000000000000000, 0.0000000000000000000, 0.0000000000000000000 ) ) ;
#45 = APPROVAL_PERSON_ORGANIZATION ( #180, #65, #328 ) ;
#46 = LINE ( 'NONE', #188, #270 ) ;
#47 = EDGE_CURVE ( 'NONE', #304, #6, #323, .T. ) ;
#48 = AXIS2_PLACEMENT_3D ( 'NONE', #266, #355, #100 ) ;
#49 = COORDINATED_UNIVERSAL_TIME_OFFSET ( 2, 0, .AHEAD. ) ;
#50 = EDGE_CURVE ( 'NONE', #206, #145, #362, .T. ) ;
#51 = APPROVAL_STATUS ( 'not_yet_approved' ) ;
#52 = DIRECTION ( 'NONE',  ( 0.0000000000000000000, 0.0000000000000000000, 1.000000000000000000 ) ) ;
#53 = CARTESIAN_POINT ( 'NONE',  ( 0.0000000000000000000, 50.00000000000000000, -319.9999999999999432 ) ) ;
#54 = APPROVAL_DATE_TIME ( #274, #186 ) ;
#55 = PERSON_AND_ORGANIZATION ( #356, #331 ) ;
#56 = LOCAL_TIME ( 8, 35, 12.00000000000000000, #290 ) ;
#57 = APPROVAL_DATE_TIME ( #203, #42 ) ;
#58 = PERSON_AND_ORGANIZATION ( #356, #331 ) ;
#59 = DIRECTION ( 'NONE',  ( -0.0000000000000000000, -1.000000000000000000, -0.0000000000000000000 ) ) ;
#60 = CC_DESIGN_DATE_AND_TIME_ASSIGNMENT ( #349, #120, ( #247 ) ) ;
#61 = SHAPE_REPRESENTATION ( 'Rudus 6764050 Korotusrengas kaukolämpö 640x50', ( #157, #271 ), #140 ) ;
#62 = CARTESIAN_POINT ( 'NONE',  ( 0.0000000000000000000, 0.0000000000000000000, 0.0000000000000000000 ) ) ;
#63 = AXIS2_PLACEMENT_3D ( 'NONE', #191, #164, #268 ) ;
#64 = PERSON_AND_ORGANIZATION ( #356, #331 ) ;
#65 = APPROVAL ( #237, 'UNSPECIFIED' ) ;
#66 = ORIENTED_EDGE ( 'NONE', *, *, #101, .T. ) ;
#67 = ORIENTED_EDGE ( 'NONE', *, *, #236, .T. ) ;
#68 = AXIS2_PLACEMENT_3D ( 'NONE', #30, #81, #143 ) ;
#69 = EDGE_CURVE ( 'NONE', #314, #118, #96, .T. ) ;
#70 = DIRECTION ( 'NONE',  ( 0.0000000000000000000, 0.0000000000000000000, 1.000000000000000000 ) ) ;
#71 = CC_DESIGN_APPROVAL ( #65, ( #247 ) ) ;
#72 = APPLICATION_CONTEXT ( 'configuration controlled 3d designs of mechanical parts and assemblies' ) ;
#73 = ADVANCED_FACE ( 'NONE', ( #233 ), #360, .F. ) ;
#74 = APPROVAL_STATUS ( 'not_yet_approved' ) ;
#75 = PERSON_AND_ORGANIZATION ( #356, #331 ) ;
#76 = FACE_OUTER_BOUND ( 'NONE', #221, .T. ) ;
#77 = CC_DESIGN_PERSON_AND_ORGANIZATION_ASSIGNMENT ( #169, #171, ( #372 ) ) ;
#78 = AXIS2_PLACEMENT_3D ( 'NONE', #62, #207, #286 ) ;
#79 = ORIENTED_EDGE ( 'NONE', *, *, #243, .F. ) ;
#80 = APPROVAL_DATE_TIME ( #329, #92 ) ;
#81 = DIRECTION ( 'NONE',  ( -0.0000000000000000000, -1.000000000000000000, -0.0000000000000000000 ) ) ;
#82 = APPROVAL_ROLE ( '' ) ;
#83 = DATE_TIME_ROLE ( 'classification_date' ) ;
#84 = DATE_AND_TIME ( #361, #280 ) ;
#85 = AXIS2_PLACEMENT_3D ( 'NONE', #210, #347, #174 ) ;
#86 = APPROVAL_DATE_TIME ( #104, #8 ) ;
#87 = LOCAL_TIME ( 8, 35, 12.00000000000000000, #98 ) ;
#88 = ADVANCED_FACE ( 'NONE', ( #76 ), #226, .F. ) ;
#89 = DIRECTION ( 'NONE',  ( 0.0000000000000000000, 1.000000000000000000, 0.0000000000000000000 ) ) ;
#90 = PLANE ( 'NONE',  #78 ) ;
#91 = FACE_BOUND ( 'NONE', #185, .T. ) ;
#92 = APPROVAL ( #29, 'UNKNOWN' ) ;
#93 = ORIENTED_EDGE ( 'NONE', *, *, #47, .F. ) ;
#94 = CIRCLE ( 'NONE', #219, 424.9999999999999432 ) ;
#95 = DIRECTION ( 'NONE',  ( 0.0000000000000000000, 0.0000000000000000000, 1.000000000000000000 ) ) ;
#96 = CIRCLE ( 'NONE', #63, 424.9999999999999432 ) ;
#97 = ORIENTED_EDGE ( 'NONE', *, *, #239, .T. ) ;
#98 = COORDINATED_UNIVERSAL_TIME_OFFSET ( 2, 0, .AHEAD. ) ;
#99 = CARTESIAN_POINT ( 'NONE',  ( 0.0000000000000000000, -161.7731247645711790, 0.0000000000000000000 ) ) ;
#100 = DIRECTION ( 'NONE',  ( 0.0000000000000000000, 0.0000000000000000000, 1.000000000000000000 ) ) ;
#101 = EDGE_CURVE ( 'NONE', #153, #304, #149, .T. ) ;
#102 = UNCERTAINTY_MEASURE_WITH_UNIT (LENGTH_MEASURE( 1.000000000000000082E-05 ), #366, 'distance_accuracy_value', 'NONE');
#103 = SECURITY_CLASSIFICATION ( '', '', #168 ) ;
#104 = DATE_AND_TIME ( #32, #220 ) ;
#105 = ADVANCED_FACE ( 'NONE', ( #288, #342 ), #90, .F. ) ;
#106 = MECHANICAL_CONTEXT ( 'NONE', #367, 'mechanical' ) ;
#107 = COORDINATED_UNIVERSAL_TIME_OFFSET ( 2, 0, .AHEAD. ) ;
#108 = CARTESIAN_POINT ( 'NONE',  ( 0.0000000000000000000, 50.00000000000000000, 0.0000000000000000000 ) ) ;
#109 = VECTOR ( 'NONE', #348, 1000.000000000000000 ) ;
#110 = COORDINATED_UNIVERSAL_TIME_OFFSET ( 2, 0, .AHEAD. ) ;
#111 = FACE_OUTER_BOUND ( 'NONE', #132, .T. ) ;
#112 = PERSON_AND_ORGANIZATION_ROLE ( 'design_supplier' ) ;
#113 = APPROVAL_DATE_TIME ( #242, #65 ) ;
#114 = AXIS2_PLACEMENT_3D ( 'NONE', #147, #251, #256 ) ;
#115 = LOCAL_TIME ( 8, 35, 12.00000000000000000, #49 ) ;
#116 = LOCAL_TIME ( 8, 35, 12.00000000000000000, #107 ) ;
#117 = DIRECTION ( 'NONE',  ( 0.0000000000000000000, 0.0000000000000000000, 1.000000000000000000 ) ) ;
#118 = VERTEX_POINT ( 'NONE', #255 ) ;
#119 = CC_DESIGN_PERSON_AND_ORGANIZATION_ASSIGNMENT ( #75, #24, ( #357 ) ) ;
#120 = DATE_TIME_ROLE ( 'classification_date' ) ;
#121 = AXIS2_PLACEMENT_3D ( 'NONE', #125, #134, #315 ) ;
#122 = DIRECTION ( 'NONE',  ( -5.551115123125781470E-17, 1.000000000000000000, 9.244463733058732095E-33 ) ) ;
#123 = PLANE ( 'NONE',  #114 ) ;
#124 = EDGE_LOOP ( 'NONE', ( #346, #262 ) ) ;
#125 = CARTESIAN_POINT ( 'NONE',  ( 0.0000000000000000000, 0.0000000000000000000, 0.0000000000000000000 ) ) ;
#126 = EDGE_CURVE ( 'NONE', #153, #12, #246, .T. ) ;
#127 = ORIENTED_EDGE ( 'NONE', *, *, #243, .T. ) ;
#128 = DIRECTION ( 'NONE',  ( -0.0000000000000000000, -1.000000000000000000, -0.0000000000000000000 ) ) ;
#129 = APPROVAL_DATE_TIME ( #15, #316 ) ;
#130 = SHAPE_REPRESENTATION_RELATIONSHIP ( 'NONE' , 'NONE' ,  #41, #148 ) ;
#131 = CIRCLE ( 'NONE', #330, 319.9999999999999432 ) ;
#132 = EDGE_LOOP ( 'NONE', ( #343, #195, #215, #5 ) ) ;
#133 = DESIGN_CONTEXT ( 'detailed design', #72, 'design' ) ;
#134 = DIRECTION ( 'NONE',  ( 0.0000000000000000000, 0.0000000000000000000, 1.000000000000000000 ) ) ;
#135 = CC_DESIGN_PERSON_AND_ORGANIZATION_ASSIGNMENT ( #64, #38, ( #247 ) ) ;
#136 = PERSON_AND_ORGANIZATION_ROLE ( 'creator' ) ;
#137 = ITEM_DEFINED_TRANSFORMATION ( 'NONE', 'NONE', #271,  #189 ) ;
#138 = COORDINATED_UNIVERSAL_TIME_OFFSET ( 2, 0, .AHEAD. ) ;
#139 = SECURITY_CLASSIFICATION_LEVEL ( 'unclassified' ) ;
#140 =( GEOMETRIC_REPRESENTATION_CONTEXT ( 3 ) GLOBAL_UNCERTAINTY_ASSIGNED_CONTEXT ( ( #102 ) ) GLOBAL_UNIT_ASSIGNED_CONTEXT ( ( #366, #4, #275 ) ) REPRESENTATION_CONTEXT ( 'NONE', 'WORKASPACE' ) );
#141 = SECURITY_CLASSIFICATION ( '', '', #139 ) ;
#142 = APPROVAL_ROLE ( '' ) ;
#143 = DIRECTION ( 'NONE',  ( 0.0000000000000000000, 0.0000000000000000000, -1.000000000000000000 ) ) ;
#144 = PRODUCT_RELATED_PRODUCT_CATEGORY ( 'detail', '', ( #357 ) ) ;
#145 = VERTEX_POINT ( 'NONE', #37 ) ;
#146 = MECHANICAL_CONTEXT ( 'NONE', #160, 'mechanical' ) ;
#147 = CARTESIAN_POINT ( 'NONE',  ( 0.0000000000000000000, 50.00000000000000000, 0.0000000000000000000 ) ) ;
#148 = ADVANCED_BREP_SHAPE_REPRESENTATION ( '', ( #1, #189 ), #344 ) ;
#149 = LINE ( 'NONE', #259, #109 ) ;
#150 = CARTESIAN_POINT ( 'NONE',  ( 5.204748896376250107E-14, 50.00000000000000000, 424.9999999999999432 ) ) ;
#151 = CC_DESIGN_APPROVAL ( #316, ( #365 ) ) ;
#152 = CC_DESIGN_PERSON_AND_ORGANIZATION_ASSIGNMENT ( #249, #369, ( #190 ) ) ;
#153 = VERTEX_POINT ( 'NONE', #340 ) ;
#154 = LINE ( 'NONE', #2, #278 ) ;
#155 = CALENDAR_DATE ( 2020, 16, 3 ) ;
#156 = ORIENTED_EDGE ( 'NONE', *, *, #336, .F. ) ;
#157 = AXIS2_PLACEMENT_3D ( 'NONE', #332, #52, #167 ) ;
#158 = DIRECTION ( 'NONE',  ( -0.0000000000000000000, -1.000000000000000000, -0.0000000000000000000 ) ) ;
#159 = EDGE_LOOP ( 'NONE', ( #67, #20 ) ) ;
#160 = APPLICATION_CONTEXT ( 'configuration controlled 3d designs of mechanical parts and assemblies' ) ;
#161 = PRODUCT_RELATED_PRODUCT_CATEGORY ( 'detail', '', ( #19 ) ) ;
#162 = AXIS2_PLACEMENT_3D ( 'NONE', #231, #158, #10 ) ;
#163 = DIRECTION ( 'NONE',  ( -0.0000000000000000000, -1.000000000000000000, -0.0000000000000000000 ) ) ;
#164 = DIRECTION ( 'NONE',  ( 0.0000000000000000000, 1.000000000000000000, 0.0000000000000000000 ) ) ;
#165 =( NAMED_UNIT ( * ) SI_UNIT ( $, .STERADIAN. ) SOLID_ANGLE_UNIT ( ) );
#166 = CALENDAR_DATE ( 2020, 16, 3 ) ;
#167 = DIRECTION ( 'NONE',  ( 1.000000000000000000, 0.0000000000000000000, 0.0000000000000000000 ) ) ;
#168 = SECURITY_CLASSIFICATION_LEVEL ( 'unclassified' ) ;
#169 = PERSON_AND_ORGANIZATION ( #356, #331 ) ;
#170 = ADVANCED_FACE ( 'NONE', ( #292, #91 ), #123, .T. ) ;
#171 = PERSON_AND_ORGANIZATION_ROLE ( 'creator' ) ;
#172 = PERSON_AND_ORGANIZATION ( #356, #331 ) ;
#173 = DIRECTION ( 'NONE',  ( 0.0000000000000000000, 0.0000000000000000000, 1.000000000000000000 ) ) ;
#174 = DIRECTION ( 'NONE',  ( 0.0000000000000000000, 0.0000000000000000000, 1.000000000000000000 ) ) ;
#175 =( LENGTH_UNIT ( ) NAMED_UNIT ( * ) SI_UNIT ( .MILLI., .METRE. ) );
#176 = DIRECTION ( 'NONE',  ( 0.0000000000000000000, 0.0000000000000000000, 1.000000000000000000 ) ) ;
#177 = VECTOR ( 'NONE', #26, 1000.000000000000000 ) ;
#178 = EDGE_LOOP ( 'NONE', ( #9, #97, #257, #334 ) ) ;
#179 = DIRECTION ( 'NONE',  ( 0.0000000000000000000, 1.000000000000000000, 0.0000000000000000000 ) ) ;
#180 = PERSON_AND_ORGANIZATION ( #356, #331 ) ;
#181 = CC_DESIGN_DATE_AND_TIME_ASSIGNMENT ( #309, #326, ( #103 ) ) ;
#182 = COORDINATED_UNIVERSAL_TIME_OFFSET ( 2, 0, .AHEAD. ) ;
#183 = APPROVAL_PERSON_ORGANIZATION ( #363, #92, #196 ) ;
#184 = CALENDAR_DATE ( 2020, 16, 3 ) ;
#185 = EDGE_LOOP ( 'NONE', ( #79, #238 ) ) ;
#186 = APPROVAL ( #335, 'UNSPECIFIED' ) ;
#187 = DESIGN_CONTEXT ( 'detailed design', #192, 'design' ) ;
#188 = CARTESIAN_POINT ( 'NONE',  ( 0.0000000000000000000, 50.00000000000000000, -424.9999999999999432 ) ) ;
#189 = AXIS2_PLACEMENT_3D ( 'NONE', #44, #265, #284 ) ;
#190 = PRODUCT_DEFINITION_FORMATION_WITH_SPECIFIED_SOURCE ( 'ANY', '', #357, .NOT_KNOWN. ) ;
#191 = CARTESIAN_POINT ( 'NONE',  ( 0.0000000000000000000, 0.0000000000000000000, 0.0000000000000000000 ) ) ;
#192 = APPLICATION_CONTEXT ( 'configuration controlled 3d designs of mechanical parts and assemblies' ) ;
#193 = PERSON_AND_ORGANIZATION ( #356, #331 ) ;
#194 = CC_DESIGN_APPROVAL ( #222, ( #353 ) ) ;
#195 = ORIENTED_EDGE ( 'NONE', *, *, #267, .F. ) ;
#196 = APPROVAL_ROLE ( '' ) ;
#197 = PRODUCT_DEFINITION_SHAPE ( 'NONE', 'NONE',  #365 ) ;
#198 = LINE ( 'NONE', #53, #177 ) ;
#199 = DATE_AND_TIME ( #276, #87 ) ;
#200 = PERSON_AND_ORGANIZATION_ROLE ( 'classification_officer' ) ;
#201 = CYLINDRICAL_SURFACE ( 'NONE', #162, 424.9999999999999432 ) ;
#202 = COORDINATED_UNIVERSAL_TIME_OFFSET ( 2, 0, .AHEAD. ) ;
#203 = DATE_AND_TIME ( #228, #339 ) ;
#204 = APPROVAL_PERSON_ORGANIZATION ( #229, #8, #368 ) ;
#205 = COORDINATED_UNIVERSAL_TIME_OFFSET ( 2, 0, .AHEAD. ) ;
#206 = VERTEX_POINT ( 'NONE', #150 ) ;
#207 = DIRECTION ( 'NONE',  ( 0.0000000000000000000, 1.000000000000000000, 0.0000000000000000000 ) ) ;
#208 = UNCERTAINTY_MEASURE_WITH_UNIT (LENGTH_MEASURE( 1.000000000000000082E-05 ), #175, 'distance_accuracy_value', 'NONE');
#209 = AXIS2_PLACEMENT_3D ( 'NONE', #285, #179, #117 ) ;
#210 = CARTESIAN_POINT ( 'NONE',  ( 0.0000000000000000000, 50.00000000000000000, 0.0000000000000000000 ) ) ;
#211 = CARTESIAN_POINT ( 'NONE',  ( 0.0000000000000000000, 0.0000000000000000000, 0.0000000000000000000 ) ) ;
#212 = EDGE_CURVE ( 'NONE', #118, #314, #94, .T. ) ;
#213 = LOCAL_TIME ( 8, 35, 12.00000000000000000, #182 ) ;
#214 = CC_DESIGN_PERSON_AND_ORGANIZATION_ASSIGNMENT ( #58, #136, ( #353 ) ) ;
#215 = ORIENTED_EDGE ( 'NONE', *, *, #34, .T. ) ;
#216 = APPROVAL_STATUS ( 'not_yet_approved' ) ;
#217 = APPLICATION_PROTOCOL_DEFINITION ( 'international standard', 'config_control_design', 1994, #192 ) ;
#218 = CARTESIAN_POINT ( 'NONE',  ( 0.0000000000000000000, 50.00000000000000000, 0.0000000000000000000 ) ) ;
#219 = AXIS2_PLACEMENT_3D ( 'NONE', #289, #89, #95 ) ;
#220 = LOCAL_TIME ( 8, 35, 12.00000000000000000, #224 ) ;
#221 = EDGE_LOOP ( 'NONE', ( #3, #261, #244, #93 ) ) ;
#222 = APPROVAL ( #74, 'UNSPECIFIED' ) ;
#223 = EDGE_LOOP ( 'NONE', ( #127, #66, #325, #156 ) ) ;
#224 = COORDINATED_UNIVERSAL_TIME_OFFSET ( 2, 0, .AHEAD. ) ;
#225 = CALENDAR_DATE ( 2020, 16, 3 ) ;
#226 = CYLINDRICAL_SURFACE ( 'NONE', #68, 319.9999999999999432 ) ;
#227 = CC_DESIGN_PERSON_AND_ORGANIZATION_ASSIGNMENT ( #281, #230, ( #103 ) ) ;
#228 = CALENDAR_DATE ( 2020, 16, 3 ) ;
#229 = PERSON_AND_ORGANIZATION ( #356, #331 ) ;
#230 = PERSON_AND_ORGANIZATION_ROLE ( 'classification_officer' ) ;
#231 = CARTESIAN_POINT ( 'NONE',  ( 0.0000000000000000000, 50.00000000000000000, 0.0000000000000000000 ) ) ;
#232 = DATE_AND_TIME ( #303, #7 ) ;
#233 = FACE_OUTER_BOUND ( 'NONE', #223, .T. ) ;
#234 = DIRECTION ( 'NONE',  ( 0.0000000000000000000, 1.000000000000000000, 0.0000000000000000000 ) ) ;
#235 = DIRECTION ( 'NONE',  ( -0.0000000000000000000, -1.000000000000000000, -0.0000000000000000000 ) ) ;
#236 = EDGE_CURVE ( 'NONE', #6, #304, #131, .T. ) ;
#237 = APPROVAL_STATUS ( 'not_yet_approved' ) ;
#238 = ORIENTED_EDGE ( 'NONE', *, *, #126, .F. ) ;
#239 = EDGE_CURVE ( 'NONE', #206, #118, #154, .T. ) ;
#240 = APPROVAL_PERSON_ORGANIZATION ( #11, #316, #350 ) ;
#241 = CC_DESIGN_PERSON_AND_ORGANIZATION_ASSIGNMENT ( #263, #18, ( #365 ) ) ;
#242 = DATE_AND_TIME ( #22, #345 ) ;
#243 = EDGE_CURVE ( 'NONE', #12, #153, #317, .T. ) ;
#244 = ORIENTED_EDGE ( 'NONE', *, *, #336, .T. ) ;
#245 = COORDINATED_UNIVERSAL_TIME_OFFSET ( 2, 0, .AHEAD. ) ;
#246 = CIRCLE ( 'NONE', #264, 319.9999999999999432 ) ;
#247 = SECURITY_CLASSIFICATION ( '', '', #312 ) ;
#248 = APPLICATION_PROTOCOL_DEFINITION ( 'international standard', 'config_control_design', 1994, #160 ) ;
#249 = PERSON_AND_ORGANIZATION ( #356, #331 ) ;
#250 = PERSON_AND_ORGANIZATION_ROLE ( 'design_owner' ) ;
#251 = DIRECTION ( 'NONE',  ( 0.0000000000000000000, 1.000000000000000000, 0.0000000000000000000 ) ) ;
#252 = CC_DESIGN_DATE_AND_TIME_ASSIGNMENT ( #84, #83, ( #141 ) ) ;
#253 = AXIS2_PLACEMENT_3D ( 'NONE', #218, #322, #70 ) ;
#254 = APPROVAL_PERSON_ORGANIZATION ( #370, #222, #358 ) ;
#255 = CARTESIAN_POINT ( 'NONE',  ( 5.204748896376250107E-14, 0.0000000000000000000, 424.9999999999999432 ) ) ;
#256 = DIRECTION ( 'NONE',  ( 0.0000000000000000000, -0.0000000000000000000, 1.000000000000000000 ) ) ;
#257 = ORIENTED_EDGE ( 'NONE', *, *, #212, .T. ) ;
#258 = CARTESIAN_POINT ( 'NONE',  ( 0.0000000000000000000, 50.00000000000000000, 0.0000000000000000000 ) ) ;
#259 = CARTESIAN_POINT ( 'NONE',  ( 3.918869757271529790E-14, 50.00000000000000000, 319.9999999999999432 ) ) ;
#260 = CC_DESIGN_APPROVAL ( #8, ( #372 ) ) ;
#261 = ORIENTED_EDGE ( 'NONE', *, *, #126, .T. ) ;
#262 = ORIENTED_EDGE ( 'NONE', *, *, #50, .T. ) ;
#263 = PERSON_AND_ORGANIZATION ( #356, #331 ) ;
#264 = AXIS2_PLACEMENT_3D ( 'NONE', #36, #234, #173 ) ;
#265 = DIRECTION ( 'NONE',  ( 0.0000000000000000000, 0.0000000000000000000, 1.000000000000000000 ) ) ;
#266 = CARTESIAN_POINT ( 'NONE',  ( 0.0000000000000000000, 0.0000000000000000000, 0.0000000000000000000 ) ) ;
#267 = EDGE_CURVE ( 'NONE', #145, #206, #310, .T. ) ;
#268 = DIRECTION ( 'NONE',  ( 0.0000000000000000000, 0.0000000000000000000, 1.000000000000000000 ) ) ;
#269 = DATE_TIME_ROLE ( 'creation_date' ) ;
#270 = VECTOR ( 'NONE', #163, 1000.000000000000000 ) ;
#271 = AXIS2_PLACEMENT_3D ( 'NONE', #99, #122, #13 ) ;
#272 = APPLICATION_PROTOCOL_DEFINITION ( 'international standard', 'config_control_design', 1994, #367 ) ;
#273 = CC_DESIGN_DATE_AND_TIME_ASSIGNMENT ( #232, #269, ( #353 ) ) ;
#274 = DATE_AND_TIME ( #166, #115 ) ;
#275 =( NAMED_UNIT ( * ) SI_UNIT ( $, .STERADIAN. ) SOLID_ANGLE_UNIT ( ) );
#276 = CALENDAR_DATE ( 2020, 16, 3 ) ;
#277 = CALENDAR_DATE ( 2020, 16, 3 ) ;
#278 = VECTOR ( 'NONE', #235, 1000.000000000000000 ) ;
#279 = LOCAL_TIME ( 8, 35, 12.00000000000000000, #205 ) ;
#280 = LOCAL_TIME ( 8, 35, 12.00000000000000000, #245 ) ;
#281 = PERSON_AND_ORGANIZATION ( #356, #331 ) ;
#282 = PERSON_AND_ORGANIZATION_ROLE ( 'creator' ) ;
#283 = CARTESIAN_POINT ( 'NONE',  ( 0.0000000000000000000, 0.0000000000000000000, -424.9999999999999432 ) ) ;
#284 = DIRECTION ( 'NONE',  ( 1.000000000000000000, 0.0000000000000000000, 0.0000000000000000000 ) ) ;
#285 = CARTESIAN_POINT ( 'NONE',  ( 0.0000000000000000000, 50.00000000000000000, 0.0000000000000000000 ) ) ;
#286 = DIRECTION ( 'NONE',  ( 0.0000000000000000000, -0.0000000000000000000, 1.000000000000000000 ) ) ;
#287 = ADVANCED_FACE ( 'NONE', ( #39 ), #35, .T. ) ;
#288 = FACE_OUTER_BOUND ( 'NONE', #296, .T. ) ;
#289 = CARTESIAN_POINT ( 'NONE',  ( 0.0000000000000000000, 0.0000000000000000000, 0.0000000000000000000 ) ) ;
#290 = COORDINATED_UNIVERSAL_TIME_OFFSET ( 2, 0, .AHEAD. ) ;
#291 = ORIENTED_EDGE ( 'NONE', *, *, #69, .F. ) ;
#292 = FACE_OUTER_BOUND ( 'NONE', #124, .T. ) ;
#293 = ORIENTED_EDGE ( 'NONE', *, *, #212, .F. ) ;
#294 = CC_DESIGN_APPROVAL ( #92, ( #141 ) ) ;
#295 = APPROVAL_PERSON_ORGANIZATION ( #193, #186, #142 ) ;
#296 = EDGE_LOOP ( 'NONE', ( #291, #293 ) ) ;
#297 = PERSON ( 'NAUO-PER1', 'UNSPECIFIED', 'UNSPECIFIED', ('UNSPECIFIED'), ('UNSPECIFIED'), ('UNSPECIFIED') ) ;
#298 = CC_DESIGN_DATE_AND_TIME_ASSIGNMENT ( #199, #28, ( #365 ) ) ;
#299 = PERSON_AND_ORGANIZATION ( #356, #331 ) ;
#300 = CC_DESIGN_SECURITY_CLASSIFICATION ( #103, ( #372 ) ) ;
#301 = DATE_AND_TIME ( #338, #279 ) ;
#302 = PERSON_AND_ORGANIZATION ( #356, #331 ) ;
#303 = CALENDAR_DATE ( 2020, 16, 3 ) ;
#304 = VERTEX_POINT ( 'NONE', #308 ) ;
#305 = SHAPE_DEFINITION_REPRESENTATION ( #197, #61 ) ;
#306 = CC_DESIGN_PERSON_AND_ORGANIZATION_ASSIGNMENT ( #55, #112, ( #372 ) ) ;
#307 = LOCAL_TIME ( 8, 35, 12.00000000000000000, #110 ) ;
#308 = CARTESIAN_POINT ( 'NONE',  ( 3.918869757271529790E-14, 0.0000000000000000000, 319.9999999999999432 ) ) ;
#309 = DATE_AND_TIME ( #277, #307 ) ;
#310 = CIRCLE ( 'NONE', #209, 424.9999999999999432 ) ;
#311 = ORGANIZATION ( 'NAUO-ORG1', 'UNSPECIFIED', 'UNSPECIFIED' ) ;
#312 = SECURITY_CLASSIFICATION_LEVEL ( 'unclassified' ) ;
#313 = CONTEXT_DEPENDENT_SHAPE_REPRESENTATION ( #327, #14 ) ;
#314 = VERTEX_POINT ( 'NONE', #283 ) ;
#315 = DIRECTION ( 'NONE',  ( 1.000000000000000000, 0.0000000000000000000, 0.0000000000000000000 ) ) ;
#316 = APPROVAL ( #216, 'UNSPECIFIED' ) ;
#317 = CIRCLE ( 'NONE', #85, 319.9999999999999432 ) ;
#318 = CC_DESIGN_APPROVAL ( #186, ( #103 ) ) ;
#319 = CC_DESIGN_SECURITY_CLASSIFICATION ( #141, ( #373 ) ) ;
#320 = CARTESIAN_POINT ( 'NONE',  ( 0.0000000000000000000, 50.00000000000000000, -319.9999999999999432 ) ) ;
#321 = CC_DESIGN_PERSON_AND_ORGANIZATION_ASSIGNMENT ( #363, #200, ( #141 ) ) ;
#322 = DIRECTION ( 'NONE',  ( 0.0000000000000000000, 1.000000000000000000, 0.0000000000000000000 ) ) ;
#323 = CIRCLE ( 'NONE', #48, 319.9999999999999432 ) ;
#324 = PRODUCT_DEFINITION_SHAPE ( 'NONE', 'NONE',  #353 ) ;
#325 = ORIENTED_EDGE ( 'NONE', *, *, #236, .F. ) ;
#326 = DATE_TIME_ROLE ( 'classification_date' ) ;
#327 =( REPRESENTATION_RELATIONSHIP ('NONE','NONE', #61, #41 ) REPRESENTATION_RELATIONSHIP_WITH_TRANSFORMATION ( #137 )SHAPE_REPRESENTATION_RELATIONSHIP( ) );
#328 = APPROVAL_ROLE ( '' ) ;
#329 = DATE_AND_TIME ( #225, #116 ) ;
#330 = AXIS2_PLACEMENT_3D ( 'NONE', #211, #33, #176 ) ;
#331 = ORGANIZATION ( 'UNSPECIFIED', 'UNSPECIFIED', '' ) ;
#332 = CARTESIAN_POINT ( 'NONE',  ( 0.0000000000000000000, 0.0000000000000000000, 0.0000000000000000000 ) ) ;
#333 = APPROVAL_STATUS ( 'not_yet_approved' ) ;
#334 = ORIENTED_EDGE ( 'NONE', *, *, #34, .F. ) ;
#335 = APPROVAL_STATUS ( 'not_yet_approved' ) ;
#336 = EDGE_CURVE ( 'NONE', #12, #6, #198, .T. ) ;
#337 = APPROVAL_DATE_TIME ( #301, #222 ) ;
#338 = CALENDAR_DATE ( 2020, 16, 3 ) ;
#339 = LOCAL_TIME ( 8, 35, 12.00000000000000000, #138 ) ;
#340 = CARTESIAN_POINT ( 'NONE',  ( 3.918869757271529790E-14, 50.00000000000000000, 319.9999999999999432 ) ) ;
#341 = CC_DESIGN_PERSON_AND_ORGANIZATION_ASSIGNMENT ( #172, #282, ( #190 ) ) ;
#342 = FACE_BOUND ( 'NONE', #159, .T. ) ;
#343 = ORIENTED_EDGE ( 'NONE', *, *, #239, .F. ) ;
#344 =( GEOMETRIC_REPRESENTATION_CONTEXT ( 3 ) GLOBAL_UNCERTAINTY_ASSIGNED_CONTEXT ( ( #208 ) ) GLOBAL_UNIT_ASSIGNED_CONTEXT ( ( #175, #16, #165 ) ) REPRESENTATION_CONTEXT ( 'NONE', 'WORKASPACE' ) );
#345 = LOCAL_TIME ( 8, 35, 12.00000000000000000, #43 ) ;
#346 = ORIENTED_EDGE ( 'NONE', *, *, #267, .T. ) ;
#347 = DIRECTION ( 'NONE',  ( 0.0000000000000000000, 1.000000000000000000, 0.0000000000000000000 ) ) ;
#348 = DIRECTION ( 'NONE',  ( -0.0000000000000000000, -1.000000000000000000, -0.0000000000000000000 ) ) ;
#349 = DATE_AND_TIME ( #155, #56 ) ;
#350 = APPROVAL_ROLE ( '' ) ;
#351 = CLOSED_SHELL ( 'NONE', ( #73, #287, #170, #105, #371, #88 ) ) ;
#352 = CC_DESIGN_SECURITY_CLASSIFICATION ( #247, ( #190 ) ) ;
#353 = PRODUCT_DEFINITION ( 'UNKNOWN', '', #372, #133 ) ;
#354 = CARTESIAN_POINT ( 'NONE',  ( 0.0000000000000000000, 0.0000000000000000000, -319.9999999999999432 ) ) ;
#355 = DIRECTION ( 'NONE',  ( 0.0000000000000000000, 1.000000000000000000, 0.0000000000000000000 ) ) ;
#356 = PERSON ( 'UNSPECIFIED', 'UNSPECIFIED', 'UNSPECIFIED', ('UNSPECIFIED'), ('UNSPECIFIED'), ('UNSPECIFIED') ) ;
#357 = PRODUCT ( 'Rudus 6764050 Korotusrengas kaukolämpö 640x50', 'Rudus 6764050 Korotusrengas kaukolämpö 640x50', '', ( #106 ) ) ;
#358 = APPROVAL_ROLE ( '' ) ;
#359 = CC_DESIGN_PERSON_AND_ORGANIZATION_ASSIGNMENT ( #299, #250, ( #19 ) ) ;
#360 = CYLINDRICAL_SURFACE ( 'NONE', #40, 319.9999999999999432 ) ;
#361 = CALENDAR_DATE ( 2020, 16, 3 ) ;
#362 = CIRCLE ( 'NONE', #253, 424.9999999999999432 ) ;
#363 = PERSON_AND_ORGANIZATION ( #297, #311 ) ;
#364 = CC_DESIGN_APPROVAL ( #42, ( #190 ) ) ;
#365 = PRODUCT_DEFINITION ( 'UNKNOWN', '', #190, #187 ) ;
#366 =( LENGTH_UNIT ( ) NAMED_UNIT ( * ) SI_UNIT ( .MILLI., .METRE. ) );
#367 = APPLICATION_CONTEXT ( 'configuration controlled 3d designs of mechanical parts and assemblies' ) ;
#368 = APPROVAL_ROLE ( '' ) ;
#369 = PERSON_AND_ORGANIZATION_ROLE ( 'design_supplier' ) ;
#370 = PERSON_AND_ORGANIZATION ( #356, #331 ) ;
#371 = ADVANCED_FACE ( 'NONE', ( #111 ), #201, .T. ) ;
#372 = PRODUCT_DEFINITION_FORMATION_WITH_SPECIFIED_SOURCE ( 'ANY', '', #19, .NOT_KNOWN. ) ;
#373 = NEXT_ASSEMBLY_USAGE_OCCURRENCE ( 'NAUO1', ' ', ' ', #365, #353, $ ) ;
ENDSEC;
END-ISO-10303-21;
