ISO-10303-21;
HEADER;
FILE_DESCRIPTION (( 'STEP AP203' ),
    '1' );
FILE_NAME ('Rudus 6764030 Korotusrengas kaukolämpö 640x30.step',
    '2020-03-16T06:33:12',
    ( '' ),
    ( '' ),
    'SwSTEP 2.0',
    'SolidWorks 2019',
    '' );
FILE_SCHEMA (( 'CONFIG_CONTROL_DESIGN' ));
ENDSEC;

DATA;
#1 = ORIENTED_EDGE ( 'NONE', *, *, #146, .F. ) ;
#2 = DATE_AND_TIME ( #76, #80 ) ;
#3 = MANIFOLD_SOLID_BREP ( 'Boss-Extrude-rengas', #184 ) ;
#4 = DIRECTION ( 'NONE',  ( -0.0000000000000000000, -1.000000000000000000, -0.0000000000000000000 ) ) ;
#5 = VERTEX_POINT ( 'NONE', #357 ) ;
#6 = DIRECTION ( 'NONE',  ( 0.0000000000000000000, 0.0000000000000000000, 1.000000000000000000 ) ) ;
#7 = CC_DESIGN_APPROVAL ( #328, ( #131 ) ) ;
#8 = APPLICATION_CONTEXT ( 'configuration controlled 3d designs of mechanical parts and assemblies' ) ;
#9 = ORIENTED_EDGE ( 'NONE', *, *, #365, .F. ) ;
#10 = EDGE_LOOP ( 'NONE', ( #132, #1 ) ) ;
#11 = APPROVAL_PERSON_ORGANIZATION ( #369, #231, #288 ) ;
#12 = DIRECTION ( 'NONE',  ( 0.0000000000000000000, 1.000000000000000000, 0.0000000000000000000 ) ) ;
#13 = VERTEX_POINT ( 'NONE', #329 ) ;
#14 = CC_DESIGN_DATE_AND_TIME_ASSIGNMENT ( #24, #161, ( #195 ) ) ;
#15 = PERSON_AND_ORGANIZATION ( #42, #211 ) ;
#16 = CIRCLE ( 'NONE', #318, 319.9999999999999432 ) ;
#17 = DIRECTION ( 'NONE',  ( 0.0000000000000000000, -0.0000000000000000000, 1.000000000000000000 ) ) ;
#18 = ORIENTED_EDGE ( 'NONE', *, *, #265, .T. ) ;
#19 = CC_DESIGN_PERSON_AND_ORGANIZATION_ASSIGNMENT ( #41, #220, ( #326 ) ) ;
#20 = DIRECTION ( 'NONE',  ( 0.0000000000000000000, -0.0000000000000000000, 1.000000000000000000 ) ) ;
#21 = PERSON_AND_ORGANIZATION ( #42, #211 ) ;
#22 = CARTESIAN_POINT ( 'NONE',  ( 3.918869757271529790E-14, 30.00000000000000000, 319.9999999999999432 ) ) ;
#23 = APPLICATION_PROTOCOL_DEFINITION ( 'international standard', 'config_control_design', 1994, #276 ) ;
#24 = DATE_AND_TIME ( #284, #34 ) ;
#25 = APPROVAL_STATUS ( 'not_yet_approved' ) ;
#26 = CARTESIAN_POINT ( 'NONE',  ( 5.204748896376250107E-14, 30.00000000000000000, 424.9999999999999432 ) ) ;
#27 = ADVANCED_FACE ( 'NONE', ( #96, #182 ), #217, .T. ) ;
#28 = APPROVAL_STATUS ( 'not_yet_approved' ) ;
#29 = ORIENTED_EDGE ( 'NONE', *, *, #56, .T. ) ;
#30 = CARTESIAN_POINT ( 'NONE',  ( 0.0000000000000000000, 30.00000000000000000, -319.9999999999999432 ) ) ;
#31 = DATE_AND_TIME ( #296, #177 ) ;
#32 = ADVANCED_FACE ( 'NONE', ( #278, #242 ), #123, .F. ) ;
#33 = APPROVAL ( #25, 'UNSPECIFIED' ) ;
#34 = LOCAL_TIME ( 8, 33, 12.00000000000000000, #310 ) ;
#35 =( REPRESENTATION_RELATIONSHIP ('NONE','NONE', #277, #247 ) REPRESENTATION_RELATIONSHIP_WITH_TRANSFORMATION ( #106 )SHAPE_REPRESENTATION_RELATIONSHIP( ) );
#36 = DIRECTION ( 'NONE',  ( 0.0000000000000000000, 1.000000000000000000, 0.0000000000000000000 ) ) ;
#37 = CIRCLE ( 'NONE', #372, 319.9999999999999432 ) ;
#38 = CC_DESIGN_APPROVAL ( #39, ( #326 ) ) ;
#39 = APPROVAL ( #89, 'UNSPECIFIED' ) ;
#40 = LINE ( 'NONE', #152, #104 ) ;
#41 = PERSON_AND_ORGANIZATION ( #42, #211 ) ;
#42 = PERSON ( 'UNSPECIFIED', 'UNSPECIFIED', 'UNSPECIFIED', ('UNSPECIFIED'), ('UNSPECIFIED'), ('UNSPECIFIED') ) ;
#43 = COORDINATED_UNIVERSAL_TIME_OFFSET ( 2, 0, .AHEAD. ) ;
#44 = APPROVAL ( #157, 'UNSPECIFIED' ) ;
#45 = SHAPE_DEFINITION_REPRESENTATION ( #346, #277 ) ;
#46 = CARTESIAN_POINT ( 'NONE',  ( 0.0000000000000000000, 0.0000000000000000000, 0.0000000000000000000 ) ) ;
#47 = PERSON_AND_ORGANIZATION ( #42, #211 ) ;
#48 = COORDINATED_UNIVERSAL_TIME_OFFSET ( 2, 0, .AHEAD. ) ;
#49 = PERSON_AND_ORGANIZATION ( #42, #211 ) ;
#50 = CARTESIAN_POINT ( 'NONE',  ( 0.0000000000000000000, 30.00000000000000000, 0.0000000000000000000 ) ) ;
#51 = EDGE_LOOP ( 'NONE', ( #358, #260, #325, #9 ) ) ;
#52 = COORDINATED_UNIVERSAL_TIME_OFFSET ( 2, 0, .AHEAD. ) ;
#53 = ADVANCED_FACE ( 'NONE', ( #303 ), #244, .F. ) ;
#54 = CC_DESIGN_APPROVAL ( #371, ( #300 ) ) ;
#55 = EDGE_LOOP ( 'NONE', ( #109, #171 ) ) ;
#56 = EDGE_CURVE ( 'NONE', #267, #208, #261, .T. ) ;
#57 =( GEOMETRIC_REPRESENTATION_CONTEXT ( 3 ) GLOBAL_UNCERTAINTY_ASSIGNED_CONTEXT ( ( #239 ) ) GLOBAL_UNIT_ASSIGNED_CONTEXT ( ( #272, #339, #252 ) ) REPRESENTATION_CONTEXT ( 'NONE', 'WORKASPACE' ) );
#58 = DIRECTION ( 'NONE',  ( 0.0000000000000000000, 0.0000000000000000000, 1.000000000000000000 ) ) ;
#59 = CC_DESIGN_APPROVAL ( #44, ( #264 ) ) ;
#60 = CC_DESIGN_DATE_AND_TIME_ASSIGNMENT ( #110, #83, ( #98 ) ) ;
#61 = COORDINATED_UNIVERSAL_TIME_OFFSET ( 2, 0, .AHEAD. ) ;
#62 = DIRECTION ( 'NONE',  ( 0.0000000000000000000, 0.0000000000000000000, -1.000000000000000000 ) ) ;
#63 = LINE ( 'NONE', #22, #355 ) ;
#64 = PERSON_AND_ORGANIZATION_ROLE ( 'creator' ) ;
#65 = SHAPE_REPRESENTATION_RELATIONSHIP ( 'NONE' , 'NONE' ,  #247, #366 ) ;
#66 = ADVANCED_FACE ( 'NONE', ( #306 ), #222, .F. ) ;
#67 = ORIENTED_EDGE ( 'NONE', *, *, #299, .F. ) ;
#68 = DIRECTION ( 'NONE',  ( 0.0000000000000000000, 0.0000000000000000000, 1.000000000000000000 ) ) ;
#69 =( NAMED_UNIT ( * ) PLANE_ANGLE_UNIT ( ) SI_UNIT ( $, .RADIAN. ) );
#70 = APPROVAL_ROLE ( '' ) ;
#71 = DATE_AND_TIME ( #340, #94 ) ;
#72 = SECURITY_CLASSIFICATION_LEVEL ( 'unclassified' ) ;
#73 = APPROVAL_PERSON_ORGANIZATION ( #223, #328, #227 ) ;
#74 = PERSON_AND_ORGANIZATION ( #42, #211 ) ;
#75 = EDGE_CURVE ( 'NONE', #208, #253, #63, .T. ) ;
#76 = CALENDAR_DATE ( 2020, 16, 3 ) ;
#77 = DIRECTION ( 'NONE',  ( 0.0000000000000000000, 0.0000000000000000000, 1.000000000000000000 ) ) ;
#78 = APPLICATION_CONTEXT ( 'configuration controlled 3d designs of mechanical parts and assemblies' ) ;
#79 = CONTEXT_DEPENDENT_SHAPE_REPRESENTATION ( #35, #165 ) ;
#80 = LOCAL_TIME ( 8, 33, 12.00000000000000000, #291 ) ;
#81 = FACE_OUTER_BOUND ( 'NONE', #324, .T. ) ;
#82 = EDGE_LOOP ( 'NONE', ( #67, #18, #116, #189 ) ) ;
#83 = DATE_TIME_ROLE ( 'classification_date' ) ;
#84 = CC_DESIGN_DATE_AND_TIME_ASSIGNMENT ( #342, #332, ( #264 ) ) ;
#85 = DIRECTION ( 'NONE',  ( -0.0000000000000000000, -1.000000000000000000, -0.0000000000000000000 ) ) ;
#86 = ORIENTED_EDGE ( 'NONE', *, *, #343, .F. ) ;
#87 = CC_DESIGN_PERSON_AND_ORGANIZATION_ASSIGNMENT ( #128, #64, ( #131 ) ) ;
#88 = AXIS2_PLACEMENT_3D ( 'NONE', #221, #333, #62 ) ;
#89 = APPROVAL_STATUS ( 'not_yet_approved' ) ;
#90 = CARTESIAN_POINT ( 'NONE',  ( 0.0000000000000000000, 0.0000000000000000000, 0.0000000000000000000 ) ) ;
#91 = ORIENTED_EDGE ( 'NONE', *, *, #250, .T. ) ;
#92 = CC_DESIGN_APPROVAL ( #33, ( #195 ) ) ;
#93 = LOCAL_TIME ( 8, 33, 12.00000000000000000, #188 ) ;
#94 = LOCAL_TIME ( 8, 33, 12.00000000000000000, #226 ) ;
#95 = MECHANICAL_CONTEXT ( 'NONE', #276, 'mechanical' ) ;
#96 = FACE_OUTER_BOUND ( 'NONE', #55, .T. ) ;
#97 = DIRECTION ( 'NONE',  ( 0.0000000000000000000, 1.000000000000000000, 0.0000000000000000000 ) ) ;
#98 = SECURITY_CLASSIFICATION ( '', '', #350 ) ;
#99 = CC_DESIGN_PERSON_AND_ORGANIZATION_ASSIGNMENT ( #102, #225, ( #300 ) ) ;
#100 = PERSON_AND_ORGANIZATION ( #42, #211 ) ;
#101 = DIRECTION ( 'NONE',  ( 0.0000000000000000000, 0.0000000000000000000, 1.000000000000000000 ) ) ;
#102 = PERSON_AND_ORGANIZATION ( #42, #211 ) ;
#103 = PERSON_AND_ORGANIZATION_ROLE ( 'design_owner' ) ;
#104 = VECTOR ( 'NONE', #279, 1000.000000000000000 ) ;
#105 = APPROVAL_DATE_TIME ( #186, #328 ) ;
#106 = ITEM_DEFINED_TRANSFORMATION ( 'NONE', 'NONE', #108,  #138 ) ;
#107 = CARTESIAN_POINT ( 'NONE',  ( 0.0000000000000000000, 30.00000000000000000, 0.0000000000000000000 ) ) ;
#108 = AXIS2_PLACEMENT_3D ( 'NONE', #268, #119, #209 ) ;
#109 = ORIENTED_EDGE ( 'NONE', *, *, #194, .T. ) ;
#110 = DATE_AND_TIME ( #200, #249 ) ;
#111 = PRODUCT_RELATED_PRODUCT_CATEGORY ( 'detail', '', ( #230 ) ) ;
#112 = APPROVAL_PERSON_ORGANIZATION ( #359, #44, #70 ) ;
#113 = DIRECTION ( 'NONE',  ( -0.0000000000000000000, -1.000000000000000000, -0.0000000000000000000 ) ) ;
#114 = AXIS2_PLACEMENT_3D ( 'NONE', #46, #6, #351 ) ;
#115 = LINE ( 'NONE', #26, #118 ) ;
#116 = ORIENTED_EDGE ( 'NONE', *, *, #146, .T. ) ;
#117 = UNCERTAINTY_MEASURE_WITH_UNIT (LENGTH_MEASURE( 1.000000000000000082E-05 ), #215, 'distance_accuracy_value', 'NONE');
#118 = VECTOR ( 'NONE', #4, 1000.000000000000000 ) ;
#119 = DIRECTION ( 'NONE',  ( -5.551115123125781470E-17, 1.000000000000000000, 9.244463733058732095E-33 ) ) ;
#120 = PERSON ( 'NAUO-PER1', 'UNSPECIFIED', 'UNSPECIFIED', ('UNSPECIFIED'), ('UNSPECIFIED'), ('UNSPECIFIED') ) ;
#121 = SHAPE_DEFINITION_REPRESENTATION ( #202, #247 ) ;
#122 = DIRECTION ( 'NONE',  ( 0.0000000000000000000, 0.0000000000000000000, 1.000000000000000000 ) ) ;
#123 = PLANE ( 'NONE',  #212 ) ;
#124 = CARTESIAN_POINT ( 'NONE',  ( 0.0000000000000000000, 30.00000000000000000, 0.0000000000000000000 ) ) ;
#125 = APPLICATION_PROTOCOL_DEFINITION ( 'international standard', 'config_control_design', 1994, #8 ) ;
#126 = CARTESIAN_POINT ( 'NONE',  ( 0.0000000000000000000, 30.00000000000000000, 0.0000000000000000000 ) ) ;
#127 = CALENDAR_DATE ( 2020, 16, 3 ) ;
#128 = PERSON_AND_ORGANIZATION ( #42, #211 ) ;
#129 = COORDINATED_UNIVERSAL_TIME_OFFSET ( 2, 0, .AHEAD. ) ;
#130 = AXIS2_PLACEMENT_3D ( 'NONE', #336, #362, #101 ) ;
#131 = PRODUCT_DEFINITION ( 'UNKNOWN', '', #300, #353 ) ;
#132 = ORIENTED_EDGE ( 'NONE', *, *, #320, .F. ) ;
#133 = PERSON_AND_ORGANIZATION ( #120, #141 ) ;
#134 = CARTESIAN_POINT ( 'NONE',  ( 0.0000000000000000000, 30.00000000000000000, -319.9999999999999432 ) ) ;
#135 = CARTESIAN_POINT ( 'NONE',  ( 5.204748896376250107E-14, 30.00000000000000000, 424.9999999999999432 ) ) ;
#136 = CC_DESIGN_PERSON_AND_ORGANIZATION_ASSIGNMENT ( #21, #103, ( #230 ) ) ;
#137 = VERTEX_POINT ( 'NONE', #187 ) ;
#138 = AXIS2_PLACEMENT_3D ( 'NONE', #158, #154, #281 ) ;
#139 = DIRECTION ( 'NONE',  ( 0.0000000000000000000, 1.000000000000000000, 0.0000000000000000000 ) ) ;
#140 = EDGE_LOOP ( 'NONE', ( #29, #176, #144, #263 ) ) ;
#141 = ORGANIZATION ( 'NAUO-ORG1', 'UNSPECIFIED', 'UNSPECIFIED' ) ;
#142 = LOCAL_TIME ( 8, 33, 12.00000000000000000, #240 ) ;
#143 = DATE_TIME_ROLE ( 'creation_date' ) ;
#144 = ORIENTED_EDGE ( 'NONE', *, *, #250, .F. ) ;
#145 = DIRECTION ( 'NONE',  ( 0.0000000000000000000, 0.0000000000000000000, -1.000000000000000000 ) ) ;
#146 = EDGE_CURVE ( 'NONE', #352, #137, #302, .T. ) ;
#147 = ADVANCED_FACE ( 'NONE', ( #245 ), #224, .T. ) ;
#148 = AXIS2_PLACEMENT_3D ( 'NONE', #183, #36, #122 ) ;
#149 = CIRCLE ( 'NONE', #271, 424.9999999999999432 ) ;
#150 = LOCAL_TIME ( 8, 33, 12.00000000000000000, #43 ) ;
#151 = CARTESIAN_POINT ( 'NONE',  ( 5.204748896376250107E-14, 0.0000000000000000000, 424.9999999999999432 ) ) ;
#152 = CARTESIAN_POINT ( 'NONE',  ( 0.0000000000000000000, 30.00000000000000000, -424.9999999999999432 ) ) ;
#153 = SECURITY_CLASSIFICATION_LEVEL ( 'unclassified' ) ;
#154 = DIRECTION ( 'NONE',  ( 0.0000000000000000000, 0.0000000000000000000, 1.000000000000000000 ) ) ;
#155 = CC_DESIGN_PERSON_AND_ORGANIZATION_ASSIGNMENT ( #312, #322, ( #349 ) ) ;
#156 = DIRECTION ( 'NONE',  ( -0.0000000000000000000, -1.000000000000000000, -0.0000000000000000000 ) ) ;
#157 = APPROVAL_STATUS ( 'not_yet_approved' ) ;
#158 = CARTESIAN_POINT ( 'NONE',  ( 0.0000000000000000000, 0.0000000000000000000, 0.0000000000000000000 ) ) ;
#159 = PERSON_AND_ORGANIZATION_ROLE ( 'classification_officer' ) ;
#160 = EDGE_CURVE ( 'NONE', #5, #137, #40, .T. ) ;
#161 = DATE_TIME_ROLE ( 'classification_date' ) ;
#162 = AXIS2_PLACEMENT_3D ( 'NONE', #90, #180, #213 ) ;
#163 = CALENDAR_DATE ( 2020, 16, 3 ) ;
#164 = APPROVAL_STATUS ( 'not_yet_approved' ) ;
#165 = PRODUCT_DEFINITION_SHAPE ( 'NONE', 'NONE',  #373 ) ;
#166 = DESIGN_CONTEXT ( 'detailed design', #78, 'design' ) ;
#167 = CC_DESIGN_PERSON_AND_ORGANIZATION_ASSIGNMENT ( #254, #251, ( #300 ) ) ;
#168 = DIRECTION ( 'NONE',  ( 0.0000000000000000000, 1.000000000000000000, 0.0000000000000000000 ) ) ;
#169 = DIRECTION ( 'NONE',  ( 0.0000000000000000000, 1.000000000000000000, 0.0000000000000000000 ) ) ;
#170 = LINE ( 'NONE', #30, #175 ) ;
#171 = ORIENTED_EDGE ( 'NONE', *, *, #299, .T. ) ;
#172 = APPLICATION_PROTOCOL_DEFINITION ( 'international standard', 'config_control_design', 1994, #360 ) ;
#173 = CC_DESIGN_PERSON_AND_ORGANIZATION_ASSIGNMENT ( #133, #229, ( #98 ) ) ;
#174 = CIRCLE ( 'NONE', #331, 424.9999999999999432 ) ;
#175 = VECTOR ( 'NONE', #85, 1000.000000000000000 ) ;
#176 = ORIENTED_EDGE ( 'NONE', *, *, #75, .T. ) ;
#177 = LOCAL_TIME ( 8, 33, 12.00000000000000000, #52 ) ;
#178 = APPROVAL_ROLE ( '' ) ;
#179 = CC_DESIGN_DATE_AND_TIME_ASSIGNMENT ( #31, #143, ( #349 ) ) ;
#180 = DIRECTION ( 'NONE',  ( 0.0000000000000000000, 0.0000000000000000000, 1.000000000000000000 ) ) ;
#181 = CC_DESIGN_PERSON_AND_ORGANIZATION_ASSIGNMENT ( #100, #159, ( #195 ) ) ;
#182 = FACE_BOUND ( 'NONE', #266, .T. ) ;
#183 = CARTESIAN_POINT ( 'NONE',  ( 0.0000000000000000000, 0.0000000000000000000, 0.0000000000000000000 ) ) ;
#184 = CLOSED_SHELL ( 'NONE', ( #53, #147, #27, #32, #316, #66 ) ) ;
#185 = CARTESIAN_POINT ( 'NONE',  ( 0.0000000000000000000, 0.0000000000000000000, 0.0000000000000000000 ) ) ;
#186 = DATE_AND_TIME ( #246, #313 ) ;
#187 = CARTESIAN_POINT ( 'NONE',  ( 0.0000000000000000000, 0.0000000000000000000, -424.9999999999999432 ) ) ;
#188 = COORDINATED_UNIVERSAL_TIME_OFFSET ( 2, 0, .AHEAD. ) ;
#189 = ORIENTED_EDGE ( 'NONE', *, *, #160, .F. ) ;
#190 = CARTESIAN_POINT ( 'NONE',  ( 0.0000000000000000000, 30.00000000000000000, 0.0000000000000000000 ) ) ;
#191 = AXIS2_PLACEMENT_3D ( 'NONE', #124, #156, #334 ) ;
#192 = COORDINATED_UNIVERSAL_TIME_OFFSET ( 2, 0, .AHEAD. ) ;
#193 = APPROVAL_DATE_TIME ( #71, #231 ) ;
#194 = EDGE_CURVE ( 'NONE', #5, #269, #149, .T. ) ;
#195 = SECURITY_CLASSIFICATION ( '', '', #72 ) ;
#196 = APPROVAL_ROLE ( '' ) ;
#197 = APPROVAL_STATUS ( 'not_yet_approved' ) ;
#198 = PERSON_AND_ORGANIZATION_ROLE ( 'design_owner' ) ;
#199 = CIRCLE ( 'NONE', #148, 319.9999999999999432 ) ;
#200 = CALENDAR_DATE ( 2020, 16, 3 ) ;
#201 = ORIENTED_EDGE ( 'NONE', *, *, #194, .F. ) ;
#202 = PRODUCT_DEFINITION_SHAPE ( 'NONE', 'NONE',  #131 ) ;
#203 = CC_DESIGN_APPROVAL ( #294, ( #98 ) ) ;
#204 = CIRCLE ( 'NONE', #338, 424.9999999999999432 ) ;
#205 = DIRECTION ( 'NONE',  ( 0.0000000000000000000, 0.0000000000000000000, 1.000000000000000000 ) ) ;
#206 = CC_DESIGN_PERSON_AND_ORGANIZATION_ASSIGNMENT ( #49, #198, ( #289 ) ) ;
#207 = LOCAL_TIME ( 8, 33, 12.00000000000000000, #192 ) ;
#208 = VERTEX_POINT ( 'NONE', #237 ) ;
#209 = DIRECTION ( 'NONE',  ( -1.000000000000000000, -5.551115123125782702E-17, 2.775557561562891351E-16 ) ) ;
#210 = EDGE_CURVE ( 'NONE', #267, #13, #170, .T. ) ;
#211 = ORGANIZATION ( 'UNSPECIFIED', 'UNSPECIFIED', '' ) ;
#212 = AXIS2_PLACEMENT_3D ( 'NONE', #185, #219, #20 ) ;
#213 = DIRECTION ( 'NONE',  ( 1.000000000000000000, 0.0000000000000000000, 0.0000000000000000000 ) ) ;
#214 = APPROVAL_PERSON_ORGANIZATION ( #133, #294, #348 ) ;
#215 =( LENGTH_UNIT ( ) NAMED_UNIT ( * ) SI_UNIT ( .MILLI., .METRE. ) );
#216 = APPROVAL_PERSON_ORGANIZATION ( #47, #371, #196 ) ;
#217 = PLANE ( 'NONE',  #232 ) ;
#218 = AXIS2_PLACEMENT_3D ( 'NONE', #50, #113, #145 ) ;
#219 = DIRECTION ( 'NONE',  ( 0.0000000000000000000, 1.000000000000000000, 0.0000000000000000000 ) ) ;
#220 = PERSON_AND_ORGANIZATION_ROLE ( 'design_supplier' ) ;
#221 = CARTESIAN_POINT ( 'NONE',  ( 0.0000000000000000000, 30.00000000000000000, 0.0000000000000000000 ) ) ;
#222 = CYLINDRICAL_SURFACE ( 'NONE', #191, 319.9999999999999432 ) ;
#223 = PERSON_AND_ORGANIZATION ( #42, #211 ) ;
#224 = CYLINDRICAL_SURFACE ( 'NONE', #323, 424.9999999999999432 ) ;
#225 = PERSON_AND_ORGANIZATION_ROLE ( 'design_supplier' ) ;
#226 = COORDINATED_UNIVERSAL_TIME_OFFSET ( 2, 0, .AHEAD. ) ;
#227 = APPROVAL_ROLE ( '' ) ;
#228 = DATE_AND_TIME ( #345, #356 ) ;
#229 = PERSON_AND_ORGANIZATION_ROLE ( 'classification_officer' ) ;
#230 = PRODUCT ( 'kaivo-osa-korotusrengas_Kaukol„mp”', 'kaivo-osa-korotusrengas_Kaukol„mp”', '', ( #95 ) ) ;
#231 = APPROVAL ( #164, 'UNSPECIFIED' ) ;
#232 = AXIS2_PLACEMENT_3D ( 'NONE', #273, #330, #17 ) ;
#233 = DIRECTION ( 'NONE',  ( 0.0000000000000000000, 0.0000000000000000000, 1.000000000000000000 ) ) ;
#234 = ORIENTED_EDGE ( 'NONE', *, *, #56, .F. ) ;
#235 = APPROVAL_DATE_TIME ( #2, #294 ) ;
#236 = APPROVAL_PERSON_ORGANIZATION ( #15, #39, #178 ) ;
#237 = CARTESIAN_POINT ( 'NONE',  ( 3.918869757271529790E-14, 30.00000000000000000, 319.9999999999999432 ) ) ;
#238 = CARTESIAN_POINT ( 'NONE',  ( 0.0000000000000000000, 0.0000000000000000000, 0.0000000000000000000 ) ) ;
#239 = UNCERTAINTY_MEASURE_WITH_UNIT (LENGTH_MEASURE( 1.000000000000000082E-05 ), #272, 'distance_accuracy_value', 'NONE');
#240 = COORDINATED_UNIVERSAL_TIME_OFFSET ( 2, 0, .AHEAD. ) ;
#241 = CC_DESIGN_APPROVAL ( #231, ( #349 ) ) ;
#242 = FACE_BOUND ( 'NONE', #341, .T. ) ;
#243 = DATE_TIME_ROLE ( 'creation_date' ) ;
#244 = CYLINDRICAL_SURFACE ( 'NONE', #88, 319.9999999999999432 ) ;
#245 = FACE_OUTER_BOUND ( 'NONE', #82, .T. ) ;
#246 = CALENDAR_DATE ( 2020, 16, 3 ) ;
#247 = SHAPE_REPRESENTATION ( 'kaivo-osa-korotusrengas_Kaukol„mp”', ( #138 ), #57 ) ;
#248 = DIRECTION ( 'NONE',  ( -0.0000000000000000000, -1.000000000000000000, -0.0000000000000000000 ) ) ;
#249 = LOCAL_TIME ( 8, 33, 12.00000000000000000, #259 ) ;
#250 = EDGE_CURVE ( 'NONE', #13, #253, #37, .T. ) ;
#251 = PERSON_AND_ORGANIZATION_ROLE ( 'creator' ) ;
#252 =( NAMED_UNIT ( * ) SI_UNIT ( $, .STERADIAN. ) SOLID_ANGLE_UNIT ( ) );
#253 = VERTEX_POINT ( 'NONE', #262 ) ;
#254 = PERSON_AND_ORGANIZATION ( #42, #211 ) ;
#255 = CALENDAR_DATE ( 2020, 16, 3 ) ;
#256 = APPLICATION_PROTOCOL_DEFINITION ( 'international standard', 'config_control_design', 1994, #78 ) ;
#257 = CARTESIAN_POINT ( 'NONE',  ( 0.0000000000000000000, 30.00000000000000000, 0.0000000000000000000 ) ) ;
#258 = CC_DESIGN_DATE_AND_TIME_ASSIGNMENT ( #361, #243, ( #131 ) ) ;
#259 = COORDINATED_UNIVERSAL_TIME_OFFSET ( 2, 0, .AHEAD. ) ;
#260 = ORIENTED_EDGE ( 'NONE', *, *, #343, .T. ) ;
#261 = CIRCLE ( 'NONE', #308, 319.9999999999999432 ) ;
#262 = CARTESIAN_POINT ( 'NONE',  ( 3.918869757271529790E-14, 0.0000000000000000000, 319.9999999999999432 ) ) ;
#263 = ORIENTED_EDGE ( 'NONE', *, *, #210, .F. ) ;
#264 = SECURITY_CLASSIFICATION ( '', '', #153 ) ;
#265 = EDGE_CURVE ( 'NONE', #269, #352, #115, .T. ) ;
#266 = EDGE_LOOP ( 'NONE', ( #234, #86 ) ) ;
#267 = VERTEX_POINT ( 'NONE', #134 ) ;
#268 = CARTESIAN_POINT ( 'NONE',  ( 0.0000000000000000000, -161.7731247645711790, 0.0000000000000000000 ) ) ;
#269 = VERTEX_POINT ( 'NONE', #135 ) ;
#270 = APPROVAL_PERSON_ORGANIZATION ( #285, #33, #287 ) ;
#271 = AXIS2_PLACEMENT_3D ( 'NONE', #295, #139, #77 ) ;
#272 =( LENGTH_UNIT ( ) NAMED_UNIT ( * ) SI_UNIT ( .MILLI., .METRE. ) );
#273 = CARTESIAN_POINT ( 'NONE',  ( 0.0000000000000000000, 30.00000000000000000, 0.0000000000000000000 ) ) ;
#274 = CC_DESIGN_PERSON_AND_ORGANIZATION_ASSIGNMENT ( #74, #307, ( #264 ) ) ;
#275 = CALENDAR_DATE ( 2020, 16, 3 ) ;
#276 = APPLICATION_CONTEXT ( 'configuration controlled 3d designs of mechanical parts and assemblies' ) ;
#277 = SHAPE_REPRESENTATION ( 'Rudus 6764030 Korotusrengas kaukolämpö 640x30', ( #114, #108 ), #286 ) ;
#278 = FACE_OUTER_BOUND ( 'NONE', #10, .T. ) ;
#279 = DIRECTION ( 'NONE',  ( -0.0000000000000000000, -1.000000000000000000, -0.0000000000000000000 ) ) ;
#280 = DATE_AND_TIME ( #283, #150 ) ;
#281 = DIRECTION ( 'NONE',  ( 1.000000000000000000, 0.0000000000000000000, 0.0000000000000000000 ) ) ;
#282 = CC_DESIGN_PERSON_AND_ORGANIZATION_ASSIGNMENT ( #363, #335, ( #326 ) ) ;
#283 = CALENDAR_DATE ( 2020, 16, 3 ) ;
#284 = CALENDAR_DATE ( 2020, 16, 3 ) ;
#285 = PERSON_AND_ORGANIZATION ( #42, #211 ) ;
#286 =( GEOMETRIC_REPRESENTATION_CONTEXT ( 3 ) GLOBAL_UNCERTAINTY_ASSIGNED_CONTEXT ( ( #117 ) ) GLOBAL_UNIT_ASSIGNED_CONTEXT ( ( #215, #69, #344 ) ) REPRESENTATION_CONTEXT ( 'NONE', 'WORKASPACE' ) );
#287 = APPROVAL_ROLE ( '' ) ;
#288 = APPROVAL_ROLE ( '' ) ;
#289 = PRODUCT ( 'Rudus 6764030 Korotusrengas kaukolämpö 640x30', 'Rudus 6764030 Korotusrengas kaukolämpö 640x30', '', ( #367 ) ) ;
#290 = LOCAL_TIME ( 8, 33, 12.00000000000000000, #129 ) ;
#291 = COORDINATED_UNIVERSAL_TIME_OFFSET ( 2, 0, .AHEAD. ) ;
#292 = CYLINDRICAL_SURFACE ( 'NONE', #218, 424.9999999999999432 ) ;
#293 = ORIENTED_EDGE ( 'NONE', *, *, #320, .T. ) ;
#294 = APPROVAL ( #28, 'UNKNOWN' ) ;
#295 = CARTESIAN_POINT ( 'NONE',  ( 0.0000000000000000000, 30.00000000000000000, 0.0000000000000000000 ) ) ;
#296 = CALENDAR_DATE ( 2020, 16, 3 ) ;
#297 = ORIENTED_EDGE ( 'NONE', *, *, #365, .T. ) ;
#298 = CARTESIAN_POINT ( 'NONE',  ( 0.0000000000000000000, 0.0000000000000000000, 0.0000000000000000000 ) ) ;
#299 = EDGE_CURVE ( 'NONE', #269, #5, #204, .T. ) ;
#300 = PRODUCT_DEFINITION_FORMATION_WITH_SPECIFIED_SOURCE ( 'ANY', '', #230, .NOT_KNOWN. ) ;
#301 = PRODUCT_RELATED_PRODUCT_CATEGORY ( 'detail', '', ( #289 ) ) ;
#302 = CIRCLE ( 'NONE', #130, 424.9999999999999432 ) ;
#303 = FACE_OUTER_BOUND ( 'NONE', #140, .T. ) ;
#304 = DIRECTION ( 'NONE',  ( 0.0000000000000000000, 0.0000000000000000000, -1.000000000000000000 ) ) ;
#305 = APPROVAL_DATE_TIME ( #228, #371 ) ;
#306 = FACE_OUTER_BOUND ( 'NONE', #51, .T. ) ;
#307 = PERSON_AND_ORGANIZATION_ROLE ( 'classification_officer' ) ;
#308 = AXIS2_PLACEMENT_3D ( 'NONE', #126, #97, #68 ) ;
#309 = DIRECTION ( 'NONE',  ( -0.0000000000000000000, -1.000000000000000000, -0.0000000000000000000 ) ) ;
#310 = COORDINATED_UNIVERSAL_TIME_OFFSET ( 2, 0, .AHEAD. ) ;
#311 = CC_DESIGN_SECURITY_CLASSIFICATION ( #195, ( #300 ) ) ;
#312 = PERSON_AND_ORGANIZATION ( #42, #211 ) ;
#313 = LOCAL_TIME ( 8, 33, 12.00000000000000000, #61 ) ;
#314 = APPROVAL_DATE_TIME ( #327, #39 ) ;
#315 = ORIENTED_EDGE ( 'NONE', *, *, #265, .F. ) ;
#316 = ADVANCED_FACE ( 'NONE', ( #81 ), #292, .T. ) ;
#317 = APPROVAL_DATE_TIME ( #368, #33 ) ;
#318 = AXIS2_PLACEMENT_3D ( 'NONE', #107, #169, #58 ) ;
#319 = CC_DESIGN_SECURITY_CLASSIFICATION ( #98, ( #373 ) ) ;
#320 = EDGE_CURVE ( 'NONE', #137, #352, #174, .T. ) ;
#321 = ORIENTED_EDGE ( 'NONE', *, *, #160, .T. ) ;
#322 = PERSON_AND_ORGANIZATION_ROLE ( 'creator' ) ;
#323 = AXIS2_PLACEMENT_3D ( 'NONE', #190, #309, #304 ) ;
#324 = EDGE_LOOP ( 'NONE', ( #315, #201, #321, #293 ) ) ;
#325 = ORIENTED_EDGE ( 'NONE', *, *, #210, .T. ) ;
#326 = PRODUCT_DEFINITION_FORMATION_WITH_SPECIFIED_SOURCE ( 'ANY', '', #289, .NOT_KNOWN. ) ;
#327 = DATE_AND_TIME ( #275, #142 ) ;
#328 = APPROVAL ( #197, 'UNSPECIFIED' ) ;
#329 = CARTESIAN_POINT ( 'NONE',  ( 0.0000000000000000000, 0.0000000000000000000, -319.9999999999999432 ) ) ;
#330 = DIRECTION ( 'NONE',  ( 0.0000000000000000000, 1.000000000000000000, 0.0000000000000000000 ) ) ;
#331 = AXIS2_PLACEMENT_3D ( 'NONE', #238, #12, #354 ) ;
#332 = DATE_TIME_ROLE ( 'classification_date' ) ;
#333 = DIRECTION ( 'NONE',  ( -0.0000000000000000000, -1.000000000000000000, -0.0000000000000000000 ) ) ;
#334 = DIRECTION ( 'NONE',  ( 0.0000000000000000000, 0.0000000000000000000, -1.000000000000000000 ) ) ;
#335 = PERSON_AND_ORGANIZATION_ROLE ( 'creator' ) ;
#336 = CARTESIAN_POINT ( 'NONE',  ( 0.0000000000000000000, 0.0000000000000000000, 0.0000000000000000000 ) ) ;
#337 = APPROVAL_STATUS ( 'not_yet_approved' ) ;
#338 = AXIS2_PLACEMENT_3D ( 'NONE', #257, #347, #233 ) ;
#339 =( NAMED_UNIT ( * ) PLANE_ANGLE_UNIT ( ) SI_UNIT ( $, .RADIAN. ) );
#340 = CALENDAR_DATE ( 2020, 16, 3 ) ;
#341 = EDGE_LOOP ( 'NONE', ( #91, #297 ) ) ;
#342 = DATE_AND_TIME ( #163, #93 ) ;
#343 = EDGE_CURVE ( 'NONE', #208, #267, #16, .T. ) ;
#344 =( NAMED_UNIT ( * ) SI_UNIT ( $, .STERADIAN. ) SOLID_ANGLE_UNIT ( ) );
#345 = CALENDAR_DATE ( 2020, 16, 3 ) ;
#346 = PRODUCT_DEFINITION_SHAPE ( 'NONE', 'NONE',  #349 ) ;
#347 = DIRECTION ( 'NONE',  ( 0.0000000000000000000, 1.000000000000000000, 0.0000000000000000000 ) ) ;
#348 = APPROVAL_ROLE ( '' ) ;
#349 = PRODUCT_DEFINITION ( 'UNKNOWN', '', #326, #166 ) ;
#350 = SECURITY_CLASSIFICATION_LEVEL ( 'unclassified' ) ;
#351 = DIRECTION ( 'NONE',  ( 1.000000000000000000, 0.0000000000000000000, 0.0000000000000000000 ) ) ;
#352 = VERTEX_POINT ( 'NONE', #151 ) ;
#353 = DESIGN_CONTEXT ( 'detailed design', #8, 'design' ) ;
#354 = DIRECTION ( 'NONE',  ( 0.0000000000000000000, 0.0000000000000000000, 1.000000000000000000 ) ) ;
#355 = VECTOR ( 'NONE', #248, 1000.000000000000000 ) ;
#356 = LOCAL_TIME ( 8, 33, 12.00000000000000000, #48 ) ;
#357 = CARTESIAN_POINT ( 'NONE',  ( 0.0000000000000000000, 30.00000000000000000, -424.9999999999999432 ) ) ;
#358 = ORIENTED_EDGE ( 'NONE', *, *, #75, .F. ) ;
#359 = PERSON_AND_ORGANIZATION ( #42, #211 ) ;
#360 = APPLICATION_CONTEXT ( 'configuration controlled 3d designs of mechanical parts and assemblies' ) ;
#361 = DATE_AND_TIME ( #127, #207 ) ;
#362 = DIRECTION ( 'NONE',  ( 0.0000000000000000000, 1.000000000000000000, 0.0000000000000000000 ) ) ;
#363 = PERSON_AND_ORGANIZATION ( #42, #211 ) ;
#364 = APPROVAL_DATE_TIME ( #280, #44 ) ;
#365 = EDGE_CURVE ( 'NONE', #253, #13, #199, .T. ) ;
#366 = ADVANCED_BREP_SHAPE_REPRESENTATION ( '', ( #3, #138 ), #57 ) ;
#367 = MECHANICAL_CONTEXT ( 'NONE', #360, 'mechanical' ) ;
#368 = DATE_AND_TIME ( #255, #290 ) ;
#369 = PERSON_AND_ORGANIZATION ( #42, #211 ) ;
#370 = CC_DESIGN_SECURITY_CLASSIFICATION ( #264, ( #326 ) ) ;
#371 = APPROVAL ( #337, 'UNSPECIFIED' ) ;
#372 = AXIS2_PLACEMENT_3D ( 'NONE', #298, #168, #205 ) ;
#373 = NEXT_ASSEMBLY_USAGE_OCCURRENCE ( 'NAUO1', ' ', ' ', #349, #131, $ ) ;
ENDSEC;
END-ISO-10303-21;
